Oops, an error
Loading. Please wait.

Im Alive bass

1,246 views 1 this week
1 commentread comment
1 2 3 4 5
x 4
add to favorites
×
Save as Personal and add changes to this tab that will be seen only by you. Learn more ›
×
You can save this tab as Personal to edit and correct it or add notes. All changes will be seen only by you. Learn more »
launch autoscroll
font size
0
reset
guitar tuner
edit
Autoscroll
slow
fast
+/-
esc
set tempo
stop
Shinedown - I'm Alive
Heard this song while surfing the net and gave out the tab a few years ago.I heard it 
again and realized its being played on drop D tuning, so here's the correct one. Check 
out my bass cover on Youtube if you're having problems playing it \m/

Bass Cover here -> https://youtu.be/RUnWVJ3jTKI


SYMBOLS-
^ - HAMMER ON
~ - LET IT RING

INTRO

(Drums enter)
G||---------------------------------------------||
D||---------------------------------------------||
A||2-2-2-2------2-2-2-2---------2-2-2-2-2-------||
D||---------------------------------------------||
 
(I'm Alive!!!) 0:22

G||---------------------------------------------------------------|
D||---------------------------------------------------------------|
A||2-2-2-2-2-2-2-2-2-2-2-2-4-4-5-5--------------------------------|
D||--------------------------------5-5-5-5-5-5-5-5-5-5-5-5-5-5-5-5|

G|-----------------------------------------------------------------||
D|-----------------------------------------------------------------||
A|7-7-7-7-7-7-7-7-7-7-7-7-7-7-7-7-7--------------------------------||
D|----------------------------------5-5-5-5-5-5-5-5-5-5-5-5-5-5-5-5||


VERSE 1

G||---------------------------------------------------------------|
D||---------------------------------------------------------------|
A||2-2-2-2-2-2-2-2-2-2-2-2-4-4-5-5--------------------------------|
D||--------------------------------5-5-5-5-5-5-5-5-5-5-5-5-5-5-5-5|

G|-----------------------------------------------------------------||
D|-----------------------------------------------------------------||
A|7-7-7-7-7-7-7-7-7-7-7-7-7-7-7-7-7--------------------------------||
D|----------------------------------5-5-5-5-5-5-5-5-5-5-5-5-5-5-5-5||

G||---------------------------------------------------------------|
D||---------------------------------------------------------------|
A||2-2-2-2-2-2-2-2-2-2-2-2-4-4-5-5--------------------------------|
D||--------------------------------5-5-5-5-5-5-5-5-5-5-5-5-5-5-5-5|

G|-----------------------------------------------------------------||
D|-----------------------------------------------------------------||
A|7-7-7-7-7-7-7-7-7-7-7-7-7-7-7-7-7-5-5-5-5-5-5-5-5----------------||
D|--------------------------------------------------7-7-7-7-7-7-7-7||

CHORUS 1

G||------------------------------------------------------|
D||------------------------------------------------------|
A||0-0^2-0-0^2-0^2-0^2-0^2-------------------------------|
D||-----------------------5-5-5-5-5-5-5-5-5-5-5-5-5-5-5-5|

G|-----------------------------------------------------||
D|-----------------------------------------------------||
A|-----------------------------------------------------||
D|2-0-0^2-0-0^2-0^2-0^2-5-5-5-5-5-5-5-5-0-0-0-0-2-2-2-2||

G||------------------------------------------------------|
D||------------------------------------------------------|
A||0-0^2-0-0^2-0^2-0^2-0^2-------------------------------|
D||-----------------------5-5-5-5-5-5-5-5-5-5-5-5-5-5-5-5|

G|-----------------------------------------------------||
D|-----------------------------------------------------||
A|-----------------------------------------------------||
D|2-0-0^2-0-0^2-0^2-0^2-5-5-5-5-5-5-5-5-7-7-7-7-7-7-7-7||

G||---------------------------------------------------------------||
D||---------------------------------------------------------------||
A||2-2-2-2-2-2-2-2-2-2-2-2-2-2-2-2-2-2-2-2-2-2-2-2-2-2-2-2-2-2-2-2||
D||---------------------------------------------------------------||

VERSE 2

G||---------------------------------------------------------------|
D||---------------------------------------------------------------|
A||2-2-2-2-2-2-2-2-2-2-2-2-4-4-5-5--------------------------------|
D||--------------------------------5-5-5-5-5-5-5-5-5-5-5-5-5-5-7-7|

G|-----------------------------------------------------------------||
D|-----------------------------------------------------------------||
A|-----------------------------------------------------------------||
D|2-2-2-2-2-2-2-2-2-2-2-2-2-2-2-2-2-5-5-5-5-5-5-5-5-5-5-5-5-5-5-5-5||

G||---------------------------------------------------------------|
D||---------------------------------------------------------------|
A||2-2-2-2-2-2-2-2-2-2-2-2-4-4-5-5--------------------------------|
D||--------------------------------5-5-5-5-5-5-5-5-5-5-5-5-5-5-7-7|

G|-----------------------------------------------------------------||
D|-----------------------------------------------------------------||
A|----------------------------------5-5-5-5-5-5-5-5----------------||
D|2-2-2-2-2-2-2-2-2-2-2-2-2-2-2-2-2-----------------7-7-7-7-7-7-7-7||

CHORUS 2

G||------------------------------------------------------|
D||------------------------------------------------------|
A||0-0^2-0-0^2-0^2-0^2-0^2-------------------------------|
D||-----------------------5-5-5-5-5-5-5-5-5-5-5-5-5-5-5-5|

G|-----------------------------------------------------||
D|-----------------------------------------------------||
A|-----------------------------------------------------||
D|2-0-0^2-0-0^2-0^2-0^2-5-5-5-5-5-5-5-5-0-0-0-0-2-2-2-2||

G||------------------------------------------------------|
D||------------------------------------------------------|
A||0-0^2-0-0^2-0^2-0^2-0^2-------------------------------|
D||-----------------------5-5-5-5-5-5-5-5-5-5-5-5-5-5-5-5|

G|-----------------------------------------------------||
D|-----------------------------------------------------||
A|-----------------------------------------------------||
D|2-0-0^2-0-0^2-0^2-0^2-5-5-5-5-5-5-5-5-7-7-7-7-7-7-7-7||

G||---------------------------------------------------------------||
D||---------------------------------------------------------------||
A||2-2-2-2-2-2-2-2-2-2-2-2-2-2-2-2-2-2-2-2-2-2-2-2-2-2-2-2-2-2-2-2||
D||---------------------------------------------------------------||

BRIDGE and SOLO
G||---------------------------------------------------------------||
D||---------------------------------------------------------------||
A||2-2-2-2------2-2-2-2---------2-2-2-2-2--------2-2-2-2-2-2-2-2-2||
D||---------------------------------------------------------------||

G||-----------------------------------------------------------------------||
D||-----------------------------------------------------------------------|| x2
A||2-2-2-2-2-2-2-2-2-2-2-2-4-4-4-5-5-5-7-7--------------------------------||
D||----------------------------------------5-5-5-5-5-5-5-5-7-7-7-7-7-7-7-7||

CHORUS 3 and OUTRO

G||------------------------------------------------------|
D||------------------------------------------------------|
A||------------------------------------------------------|
D||-----------------------5-5-5-5-5-5-5-5-5-5-5-5-5-5-5-5|

G|-----------------------------------------------------||
D|-----------------------------------------------------||
A|-----------------------------------------------------||
D|2-0-0^2-0-0^2-0^2-0^2-5-5-5-5-5-5-5-5-0-0-0-0-2-2-2-2||

G||------------------------------------------------------|
D||------------------------------------------------------|
A||0-0^2-0-0^2-0^2-0^2-0^2-------------------------------|
D||-----------------------5-5-5-5-5-5-5-5-5-5-5-5-5-5-5-5|

G|-----------------------------------------------------||
D|-----------------------------------------------------||
A|-----------------------------------------------------||
D|2-0-0^2-0-0^2-0^2-0^2-5-5-5-5-5-5-5-5-7-7-7-7-7-7-7-7||

G||------------------------------------------------------|
D||------------------------------------------------------|
A||0-0^2-0-0^2-0^2-0^2-0^2-------------------------------|
D||-----------------------5-5-5-5-5-5-5-5-5-5-5-5-5-5-5-5|

G|-----------------------------------------------------||
D|-----------------------------------------------------||
A|-----------------------------------------------------||
D|2-0-0^2-0-0^2-0^2-0^2-5-5-5-5-5-5-5-5-0-0-0-0-2-2-2-2||

G||------------------------------------------------------|
D||------------------------------------------------------|
A||0-0^2-0-0^2-0^2-0^2-0^2-------------------------------|
D||-----------------------5-5-5-5-5-5-5-5-5-5-5-5-5-5-5-5|

G|-------------------------------------------------------------||
D|-------------------------------------------------------------||
A|-------------------------------------------------------------||
D|2-0-0^2-0-0^2-0^2-0^2-5-5-5-5-5-5-5-5-7-7-7-7-7-7-7-2~~~~~~~~||


Don't forget to rate!


            
            
Suggest correction
Creating personal tab
Creating personal tab
You can edit any tab online and save it as your Personal.

You can edit, replace or remove any tab part or add personal notes – all changes will be seen only by you.

Personal tabs can be accessed anytime from any device, even offline.
Learn more »
comments
print report bad tab
1 comment total.
0 reply
philipf 10 May 31, 2016 07:35 AM

You forgot to put the outro! But no worries, because it's just the verse! Awesome tab dude!

guest
You may want to rate the tab now too:
select rating
Wanna post a correction for this tab? Suggest correction