Oops, an error
Loading. Please wait.

Im Not Alright tab

2,252 views 18 this week
no commentswrite comment
1 2 3 4 5
x 6
add to favorites
×
Save as Personal and add changes to this tab that will be seen only by you. Learn more ›
×
You can save this tab as Personal to edit and correct it or add notes. All changes will be seen only by you. Learn more »
launch autoscroll
font size
0
reset
how to read this tab
guitar tuner
edit
Autoscroll
slow
fast
+/-
esc
set tempo
stop
Song: I'm Not Alright
Album: Amaryllis
Artist: Shinedown
Release Date: March 27, 2012

Hey guys if you like this tab and think its accurate check out my other Shinedown tabs 
because they all are pretty similar in layout and I think are pretty accurate..
Intro:
Clean Guitar(This pretty much repeats throughout most of the song)
E|-12p10----10----10----10----10h12----12----12----12----12p10----10----10----10h12----12----12----12----|
B|-------10----10----10----10-------10----10----10----10-------10----10----10-------10----10----10----10-|
G|-------------------------------------------------------------------------------------------------------|
D|-------------------------------------------------------------------------------------------------------|
A|-------------------------------------------------------------------------------------------------------|
D|-------------------------------------------------------------------------------------------------------|


Distorted Guitar
E|--------------------------------------------------|
B|--------------------------------------------------|
G|---------7~~---------9~~---------7~~---------9~~--|
D|---------7~~---------9~~---------7~~---------9~~--|
A|---------5~~---------7~~---------5~~---------7~~--|
D|-0-0-0-0-----0-0-0-0-----0-0-0-0-----0-0-0-0------|



Verse:
Distorted Guitar
E|--------------------------------------------------|
B|--------------------------------------------------|
G|--------------------------------------------------|
D|-0~~~~~~~~~~~~~~~~~~~~~~~~~~~~~~~~~~~~~~~~~~~~~~~-|
A|-0~~~~~~~~~~~~~~~~~~~~~~~~~~~~~~~~~~~~~~~~~~~~~~~-|
D|-0~~~~~~~~~~~~~~~~~~~~~~~~~~~~~~~~~~~~~~~~~~~~~~~-|

E|--------------------------------------------------|
B|--------------------------------------------------|
G|--------------------------------------------------|
D|-5~~~~~~~~~~~~~~~-7~~~~~~~~~~~~~~~-10~~~~~~~~~~~~-|
A|-5~~~~~~~~~~~~~~~-7~~~~~~~~~~~~~~~-10~~~~~~~~~~~~-|
D|-5~~~~~~~~~~~~~~~-7~~~~~~~~~~~~~~~-10~~~~~~~~~~~~-|



Chorus:
Distorted Guitar
E|------------------------------------------------|
B|------------------------------------------------|
G|------------------------------------------------|
D|-7--7--7--7--7--7--7--7--3--3--3--3--5--5--5--5-|
A|-5--5--5--5--5--5--5--5--3--3--3--3--5--5--5--5-|
D|-0--0--0--0--0--0--0--0--3--3--3--3--5--5--5--5-|

E|------------------------------------------------|
B|------------------------------------------------|
G|------------------------------------------------|
D|-7--7--7--7--7--7--7--7--3--3--3--3--5--5--5--5-|
A|-5--5--5--5--5--5--5--5--3--3--3--3--5--5--5--5-|
D|-0--0--0--0--0--0--0--0--3--3--3--3--5--5--5--5-|

E|---------------------------------------------|
B|---------------------------------------------|
G|---------------------------------------------|
D|-8-8-8-8-8-8-8-8-8-8-8-8-8-8-8-8-0-0-0-0-0-0-|
A|-8-8-8-8-8-8-8-8-8-8-8-8-8-8-8-8-0-0-0-0-0-0-|
D|-8-8-8-8-8-8-8-8-8-8-8-8-8-8-8-8-0-0-0-0-0-0-|

E|---------------------------------------------|
B|---------------------------------------------|
G|---------------------------------------------|
D|-8-8-8-8-8-8-8-8-5-5-5-5-5-5-5-5-5-0~~~~~~~~-|
A|-8-8-8-8-8-8-8-8-5-5-5-5-5-5-5-5-5-0~~~~~~~~-|
D|-8-8-8-8-8-8-8-8-5-5-5-5-5-5-5-5-5-0~~~~~~~~-|

Repeat Intro
Repeat Verse
Repeat Chorus

Bridge:
Distorted Guitar
E|---------------------------------------------------------------------------------|
B|---------------------------------------------------------------------------------|
G|---------------------------------------------------------------------------------|
D|-8-8-8-8-8-8-8-8-10-10-10-10-10-10-10-10-0-0-0-0-0-0-0-0-0-0-0-0-0-0-0-0-0-0-0-0-|
A|-8-8-8-8-8-8-8-8-10-10-10-10-10-10-10-10-0-0-0-0-0-0-0-0-0-0-0-0-0-0-0-0-0-0-0-0-|
D|-8-8-8-8-8-8-8-8-10-10-10-10-10-10-10-10-0-0-0-0-0-0-0-0-0-0-0-0-0-0-0-0-0-0-0-0-|

E|----------------------------------------------------------|
B|----------------------------------------------------------|
G|----------------------------------------------------------|
D|-8-8-8-8-8-8-8-8-10-10-10-10-10-10-10-10-5~~~~~~~~~~~~~~~-|
A|-8-8-8-8-8-8-8-8-10-10-10-10-10-10-10-10-5~~~~~~~~~~~~~~~-|
D|-8-8-8-8-8-8-8-8-10-10-10-10-10-10-10-10-5~~~~~~~~~~~~~~~-|



Chorus:
Distorted Guitar
E|------------------------------------------------|
B|------------------------------------------------|
G|------------------------------------------------|
D|-7--7--7--7--7--7--7--7--3--3--3--3--5--5--5--5-|
A|-5--5--5--5--5--5--5--5--3--3--3--3--5--5--5--5-|
D|-0--0--0--0--0--0--0--0--3--3--3--3--5--5--5--5-|

E|------------------------------------------------|
B|------------------------------------------------|
G|------------------------------------------------|
D|-7--7--7--7--7--7--7--7--3--3--3--3--5--5--5--5-|
A|-5--5--5--5--5--5--5--5--3--3--3--3--5--5--5--5-|
D|-0--0--0--0--0--0--0--0--3--3--3--3--5--5--5--5-|

E|---------------------------------------------|
B|---------------------------------------------|
G|---------------------------------------------|
D|-8-8-8-8-8-8-8-8-8-8-8-8-8-8-8-8-0-0-0-0-0-0-|
A|-8-8-8-8-8-8-8-8-8-8-8-8-8-8-8-8-0-0-0-0-0-0-|
D|-8-8-8-8-8-8-8-8-8-8-8-8-8-8-8-8-0-0-0-0-0-0-|

E|---------------------------------|
B|---------------------------------|
G|---------------------------------|
D|-8-8-8-8-8-8-8-8-5-5-5-0~~~~~~~~-|
A|-8-8-8-8-8-8-8-8-5-5-5-0~~~~~~~~-|
D|-8-8-8-8-8-8-8-8-5-5-5-0~~~~~~~~-|

E|---------------------------------|
B|---------------------------------|
G|---------------------------------|
D|-8-8-8-8-8-8-8-8-5-5-5-5-5-5-5-5-|
A|-8-8-8-8-8-8-8-8-5-5-5-5-5-5-5-5-|
D|-8-8-8-8-8-8-8-8-5-5-5-5-5-5-5-5-|

Outro:
Distorted Guitar
E|-----------------------------------|
B|-----------------------------------|
G|---------7~~---------9~~-----------|
D|---------7~~---------9~~-7-7-7-7-7-|
A|---------5~~---------7~~-5-5-5-5-5-|
D|-0-0-0-0-----0-0-0-0-----0-0-0-0-0-|

            
            
Suggest correction
Creating personal tab
Creating personal tab
You can edit any tab online and save it as your Personal.

You can edit, replace or remove any tab part or add personal notes – all changes will be seen only by you.

Personal tabs can be accessed anytime from any device, even offline.
Learn more »
comments
print report bad tab
guest
You may want to rate the tab now too:
select rating
Wanna post a correction for this tab? Suggest correction