Oops, an error
Loading. Please wait.

Lacerated Bass Tab

version 1
version 1

Whole song

Interactive

354 views 1 this week
no commentswrite comment
1 2 3 4 5
2 more votes to show rating
add to favorites
launch autoscroll
font size
0
reset
guitar tuner
Autoscroll
slow
fast
+/-
esc
set tempo
stop
Help us to improve Ultimate-Guitar.com Take our survey!
×
Author
Difficulty
Tuning
novice
D A D G B E
VERSE: Bass Tacet

PRE-CHORUS:
G|------------------------------|
D|------------------------------|
A|------------------------------|x4
D|-0-00-0-00-1-11-1-11-1111-----|

CHORUS:
G|-------------------------------------------------------|
D|-------------------------------------------------------|
A|-------------------------------------------------------|x2
D|-3-x-3-3-5-3-0-1-x-1-1-3-1-0--0--0--00--0--1--1--1111--|

G|-------------------------------------------------------|
D|-------------------------------------------------------|
A|-------------------------------------------------------|
D|-3-x-3-3-5-3-0-1~--------------------------------------|

VERSE: Bass Tacet

PRE-CHORUS:
G|------------------------------|
D|------------------------------|
A|------------------------------|x4
D|-0-00-0-00-1-11-1-11-1111-----|

CHORUS:
G|-------------------------------------------------------|
D|-------------------------------------------------------|
A|-------------------------------------------------------|x4
D|-3-x-3-3-5-3-0-1-x-1-1-3-1-0--0--0--00--0--1--1--1111--|

BRIDGE:
G|-------------------------|
D|-------------------------|
A|-------------------------|X4
D|-0-3-5---5-3-0-3-0--0-0--|

CHORUS:
G|-------------------------------------------------------|
D|-------------------------------------------------------|
A|-------------------------------------------------------|x4
D|-3-x-3-3-5-3-0-1-x-1-1-3-1-0--0--0--00--0--1--1--1111--|

G|------------------------------|
D|------------------------------|
A|------------------------------|
D|-0~---------------------------|

Suggest correction
Give kudos to tab author, rate the tab!
1 2 3 4 5
comments
print report bad tab
guest
You may want to rate the tab now too:
select rating
Wanna post a correction for this tab? Suggest correction