Oops, an error
Loading. Please wait.

Lost In The Crowd tab

version 4
version 4

Whole song

955 views 3 this week
no commentswrite comment
1 2 3 4 5
x 4
add to favorites
×
Save as Personal and add changes to this tab that will be seen only by you. Learn more ›
×
You can save this tab as Personal to edit and correct it or add notes. All changes will be seen only by you. Learn more »
launch autoscroll
font size
0
reset
how to read this tab
guitar tuner
edit
Autoscroll
slow
fast
+/-
esc
set tempo
stop
Song: Lost in the Crowd
Album: Leave a Whisper
Artist: Shinedown
Release Date: May 27, 2003

Guitar 1 - Acoustic
Guitar 2 - Clean with Modulation/Tremolo Effect
Guitar 3 - Distorted
Guitar 4 - Distorted

Intro/Verse(Just repeat the two rows below throughout the whole verse)
Guitar 1
E|--1--1--1--1--1--1--0--0--0--0--0--0--|
B|--3--3--3--3--3--3--3--3--3--3--3--3--|
G|--2--2--2--2--2--2--0--0--0--0--0--0--|
D|--0--0--0--0--0--0--0--0--0--0--0--0--|
A|--0--0--0--0--0--0--3--3--3--3--3--3--|
D|--------------------------------------|

Guitar 2(Guitar 1 repeats it's row twice before this starts)
E|--------1-----------------0-----------|
B|-----------3-----3-----------3-----3--|
G|--------------2-----------------------|
D|-----0-----------------0--------0-----|
A|--0-----------------3-----------------|
D|--------------------------------------|

Pre-Chorus
Guitar 1
E|--------------------------------------------------------|
B|--------------------------------------------------------|
G|--3--3--3--5--5--5--5--5--3--3--3--5--5--5--5--5--5--5--|
D|--1--1--1--3--3--3--3--3--1--1--1--3--3--3--3--3--3--3--|
A|--1--1--1--3--3--3--3--3--1--1--1--3--3--3--3--3--3--3--|
D|--------------------------------------------------------|

Guitar 3&4
E|--------------------------------------------------------|
B|--------------------------------------------------------|
G|-----------------------------------5--5--5--5--5--5--5--|
D|-----------------------------------3--3--3--3--3--3--3--|
A|-----------------------------------3--3--3--3--3--3--3--|
D|--------------------------------------------------------|
                                     •  •  •  •
Guitar 2
E|-----------1--------0-----------3-----------
B|--------------3--------------------3--------
G|--------2--------2-----------2--------2-----
D|-----0--------------------0--------------3--
A|--1--------------------1--------------------
D|--------------------------------------------

Chorus
Guitar 3&4
E|----------------------------------------------------------------------|
B|-----3--3-------------------------------------------------------------|
G|-----2--2--5--5--5--5--5--5--5--3--3--3--3----------------------------|
D|--0--0--0--5--5--5--5--5--5--5--3--3--3--3--0--0h3--3--3--5-----------|
A|--0--0--0--3--3--3--3--3--3--3--1--1--1--1--0--0h3--3--3--5-----------|
D|--0--0--0-----------------------------------0--0h3--3--3--5--0--3--2--|
                                                      •  •
E|----------------------------------------------------------------------|
B|-----3--3-------------------------------------------------------------|
G|-----2--2--5--5--5--5--5--5--5--3--3--3--3----------------------------|
D|--0--0--0--5--5--5--5--5--5--5--3--3--3--3--0--0h3--3--3--5-----------|
A|--0--0--0--3--3--3--3--3--3--3--1--1--1--1--0--0h3--3--3--5-----------|
D|--0--0--0-----------------------------------0--0h3--3--3--5--0--3--2--|
                                                      •  •
Break
Guitar 3&4
E|----------------------------------------------------------------------|
B|----------------------------------------------------------------------|
G|----------------------------------------------------------------------|
D|--0~~~~~~~~~~~~~~~~~~~~~~~~~~~~~~~~~~~~~~~~~~~~~~~~~~~~~~~~~~~~~~~~~~-
A|--0~~~~~~~~~~~~~~~~~~~~~~~~~~~~~~~~~~~~~~~~~~~~~~~~~~~~~~~~~~~~~~~~~~-
D|--0~~~~~~~~~~~~~~~~~~~~~~~~~~~~~~~~~~~~~~~~~~~~~~~~~~~~~~~~~~~~~~~~~~-

Guitar 2
E|-----------1--------------------0-----------|
B|--------3-----3--------------3--------------|
G|-----------------2-----------------2--------|
D|-----0--------------0-----0-----------0-----|
A|--0--------------------3-----------------0--|
D|--------------------------------------------|

Guitar 1
E|--1--1--1--1--1--1--0--0--0--0--0--0--|
B|--3--3--3--3--3--3--3--3--3--3--3--3--|
G|--2--2--2--2--2--2--0--0--0--0--0--0--|
D|--0--0--0--0--0--0--0--0--0--0--0--0--|
A|--0--0--0--0--0--0--3--3--3--3--3--3--|
D|--------------------------------------|

Repeat Verse
Repeat Pre-Chorus
Repeat Chorus

Bridge
Guitar 4(Repeat four times)
E|-----------------------------------|
B|-----------------------------------|
G|-----------------------------------|
D|-----------------------------------|
A|-----------5-----------8--7--5-----|
D|--0--0--0-----0--0--0--------------|

Solo
Guitar 3
E|--------------------------------------------------------------------------------------|
B|-----------------------------------------------------------15b-17p13-13h15-15/18p17~~-|
G|-------------------------10h12-12h14p12-10h12~~-14p12-14p12---------------------------|
D|--12-14-15-14p12-10h12~~--------------------------------------------------------------|
A|--------------------------------------------------------------------------------------|
D|--------------------------------------------------------------------------------------|

E|-----------------------------------------------------------------------------------|
B|-1315p13-15b-13h15p13-------13-----------------------------------------------------|
G|----------------------12h14----14p12-15b-------------------------------------------|
D|-----------------------------------------15-14-12----12-14-12-10----10-------12~~~-|
A|--------------------------------------------------15-------------12----15-12-------|
D|-----------------------------------------------------------------------------------|

E|----------------------|
B|----------------------|
G|-------------13b~~~~~-|
D|-15-12----12----------|
A|-------15-------------|
D|----------------------|

Guitar 4(Rhythm Part)
E|---------------|
B|---------------|
G|--3--3-5--5-5--|
D|--3--3-5--5-5--|
A|--1--1-3--3-3--|
D|---------------|

(Keep repeating the row above throughout the solo and on the last time play this)
E|-------------------------------------|
B|-------------------------------------|
G|--3--3-5--5-5------------------------|
D|--3--3-5--5-5-0h3--3--3--5-----------|
A|--1--1-3--3-3-0h3--3--3--5-----------|
D|--------------0h3--3--3--5--0--3--2--|
                     •  •
Repeat Chorus 2x

Outro
Guitar 4
E|----------------------------------------------------------------------|
B|-----3--3-------------------------------------------------------------|
G|-----2--2--5--5--5--5--5--5--5--3--3--3--3----------------------------|
D|--0--0--0--5--5--5--5--5--5--5--3--3--3--3--0--0h3--3--3--5-----------|
A|--0--0--0--3--3--3--3--3--3--3--1--1--1--1--0--0h3--3--3--5-----------|
D|--0--0--0-----------------------------------0--0h3--3--3--5--0--3--2--|
                                                      •  •
E|-------------------------------------------------------------|
B|-----3--3----------------------------------------------------|
G|-----2--2--5--5--5--5--5--5--5--3--3--3--3-------------------|
D|--0--0--0--5--5--5--5--5--5--5--3--3--3--3--0--0h3--3--3--5--|
A|--0--0--0--3--3--3--3--3--3--3--1--1--1--1--0--0h3--3--3--5--|
D|--0--0--0-----------------------------------0--0h3--3--3--5--|
                                                      •  •

Guitar 3
E|-----------------------------------------------|
B|-----------------------------------------------|
G|--7--7--7--9--9--9--9--9/10-10-12--12--12--12--|
D|-----------------------------------------------|
A|--5--5--5--7--7--7--7--7/8--8--10--10--10--10--|
D|-----------------------------------------------|

E|----------------------------------|
B|----------------------------------|
G|--7--7--7--9--9--9--9--9/10-10-12-|
D|----------------------------------|
A|--5--5--5--7--7--7--7--7/8--8--10-|
D|----------------------------------|

            
            
Suggest correction
Creating personal tab
Creating personal tab
You can edit any tab online and save it as your Personal.

You can edit, replace or remove any tab part or add personal notes – all changes will be seen only by you.

Personal tabs can be accessed anytime from any device, even offline.
Learn more »
comments
print report bad tab
guest
You may want to rate the tab now too:
select rating
Wanna post a correction for this tab? Suggest correction