Oops, an error
Loading. Please wait.

Miracle Acoustic tab

version 2
version 2

Whole song

  • Taken directly from "the live room".

Interactive

439 views 6 this week
no commentswrite comment
1 2 3 4 5
2 more votes to show rating
add to favorites
×
Save as Personal and add changes to this tab that will be seen only by you. Learn more ›
×
You can save this tab as Personal to edit and correct it or add notes. All changes will be seen only by you. Learn more »
launch autoscroll
font size
0
reset
how to read this tab
guitar tuner
edit
Autoscroll
slow
fast
+/-
esc
set tempo
stop
Author
Difficulty
About this tab version
Taken directly from "the live room". Was this info helpful? Yes No
Shinedown-Miracle
acoustic version
this tab is written the way Zach plays it in The Live Room


[Intro/ Verse 1]
e|---------------------------------------------------------------------------|
B|--------2--------2---------------------------------------------------------|
G|-----2--------2----------6-----6-----4-----0-------------------------------| (x5)
D|--4--------0--------4/7-----7-----6-----6----------------------------------|
A|---------------------------------------------------------------------------|
E|---------------------------------------------------------------------------|

e|---------------------------------------------------------------------------|
B|-----------3---------------------------------------------------------------|
G|--------4-----4-----4------------------------------------------------------|
D|-----4-----------4---------------------------------------------------------|
A|--2------------------------------------------------------------------------|
E|---------------------------------------------------------------------------|


[Verse 2]
e|---------------------------------------------------------------------------|
B|--------2--------2---------------------------------------------------------|
G|-----2--------2----------6-----6-----4-----0-------------------------------| (x3)
D|--4--------0--------4/7-----7-----6-----6----------------------------------|
A|---------------------------------------------------------------------------|
E|---------------------------------------------------------------------------|

e|---------------------------------------------------------------------------|
B|-----------3---------------------------------------------------------------|
G|--------4-----4-----4------------------------------------------------------|
D|-----4-----------4---------------------------------------------------------|
A|--2------------------------------------------------------------------------|
E|---------------------------------------------------------------------------|


[Chorus]
F#m
Take another look
D
Take a look around
     A
It's you and me
     E
It's here and now
         F#m
As you sparkle in the sky
      D
I'll catch you while I can
      A             E
Cause all we are is all I am
D                  E
I just want you to see
F#m               A
What I've always believed
D
You are
E
The miracle in me


[Verse 3]
e|---------------------------------------------------------------------------|
B|--------2--------2---------------------------------------------------------|
G|-----2--------2----------6-----6-----4-----0-------------------------------| (x5)
D|--4--------0--------4/7-----7-----6-----6----------------------------------|
A|---------------------------------------------------------------------------|
E|---------------------------------------------------------------------------|

e|---------------------------------------------------------------------------|
B|-----------3--------3--------3---------------------------------------------|
G|--------4-----4--------4---------------------------------------------------|
D|-----4-----------4--------4------------------------------------------------|
A|--2------------------------------------------------------------------------|
E|---------------------------------------------------------------------------|


[Chorus 2]
F#m
Take another look
D
Take a look around
     A
It's you and me
     E
It's here and now
         F#m
As you sparkle in the sky
      D
I'll catch you while I can
      A             E
Cause all we are is all I am
D                  E
I just want you to see
F#m               A
What I've always believed
D
You are
E
The miracle in me


[Bridge]
e|---------------------------------------------------------------------------|
B|---------------------------------------------------------------------------|
G|--16--16--16--16--16--11--9---4--------------------------------------------|
D|--16--16--16--16--16--11--9---4--------------------------------------------|
A|--14--14--14--14--14--9---7---2--------------------------------------------|
E|--x---x---x---x---x---x---x---x--------------------------------------------|

e|---------------------------------------------------------------------------|
B|---------------------------------------------------------------------------|
G|--16--16--16--16--16--11--9---11--13--13--13--13---------------------------|
D|--16--16--16--16--16--11--7---9---11--11--11--11---------------------------|
A|--14--14--14--14--14--9---7---9---11--11--11--11---------------------------|
E|--x---x---x---x---x---x---x---x---x---x---x---x----------------------------|

e|-----------------------------------|---------------------------------------|
B|-----------------------------------|---------------------------------------|
G|--14--14--14--14--14--14--14--14---|--16--16--16--16--16--16--16--16-------|
D|--14--14--14--14--14--14--14--14---|--16--16--16--16--16--16--16--16-------|
A|--12--12--12--12--12--12--12--12---|--14--14--14--14--14--14--14--14-------|
E|--x---x---x---x---x---x---x---x----|--x---x---x---x---x---x---x---x--------|

e|-----------------------------------|---------------------------------------|
B|-----------------------------------|---------------------------------------|
G|--9---9---9---9---9---9---9---9----|---------------------------------------|
D|--9---9---9---9---9---9---9---9----|--4---4---4---4---4---4---4---4--------|
A|--7---7---7---7---7---7---7---7----|--4---4---4---4---4---4---4---4--------|
E|--x---x---x---x---x---x---x---x----|--2---2---2---2---2---2---2---2--------|


[Chorus 3]
F#m
Take another look
D
Take a look around
     A
It's you and me
     E
It's here and now
         F#m
As you sparkle in the sky
      D
I'll catch you while I can
      A             E
Cause all we are is all I am
D                  E
I just want you to see
F#m               A
What I've always believed
D
You are
E              F#m   D   A   E
The miracle in me 
               F#m   D   A   E
The miracle in me
                      F#m
You're the miracle in me


/ = Slide up
x = mute string

            
            
Suggest correction
Creating personal tab
Creating personal tab
You can edit any tab online and save it as your Personal.

You can edit, replace or remove any tab part or add personal notes – all changes will be seen only by you.

Personal tabs can be accessed anytime from any device, even offline.
Learn more »
Give kudos to tab author, rate the tab!
1 2 3 4 5
comments
print report bad tab
guest
You may want to rate the tab now too:
select rating
Wanna post a correction for this tab? Suggest correction