Oops, an error
Loading. Please wait.

No More Love bass

1,005 views 1 this week
1 commentread comment
1 2 3 4 5
x 3
add to favorites
×
Save as Personal and add changes to this tab that will be seen only by you. Learn more ›
×
You can save this tab as Personal to edit and correct it or add notes. All changes will be seen only by you. Learn more »
launch autoscroll
font size
0
reset
guitar tuner
edit
Autoscroll
slow
fast
+/-
esc
set tempo
stop
Author
Song: No More Love
Artist: Shinedown
Album: Leave A Whisper
Tuning: Drop Bb (BbEADG)

|==========================================================================|

Intro: 4x
G-|-----------|
D-|-----------|
A-|-----------|
E-|-----------|
Bb|-0-0-8-8-8-|

Verse: 8x
G-|-----------------|
D-|-----------------|
A-|-----------------|
E-|-----------------|
Bb|-5--5-5-8--8-8-5-|

Chorus: 4x
G-|-----------------------------------------|
D-|-----------------------------------------|
A-|-----------------------------------------|
E-|-----------------------------------------|
Bb|-0-0-8-8-8--0-0-8-8-8--0-0-8-5-5-5/7-7-7-|

-->Verse 8x
-->Chorus 8x

Bridge: 12x
G-|-------------------|
D-|-------------------|
A-|-------------------|
E-|-1-1-------1-1-2-2-|
Bb|-----0-0-0---------|

-->Chorus 8x

Outro: 8x
G-|-------------------|
D-|-------------------|
A-|-------------------|
E-|-------------------|
Bb|-0-3-5-3-3-3/5-5-5-|

|==========================================================================|
| /  slide up     |                                                        |
| \  slide down   |========================================================|
| h  hammer-on    |Good song, one of my favorites from their first album;  |
| p  pull-off     |pretty simple and straight forward to play.             |
| ~  vibrato      |========================================================|
| +  harmonic     |                                                        |
| x  Mute note    |                                                        |
|==========================================================================|

            
            
Suggest correction
Creating personal tab
Creating personal tab
You can edit any tab online and save it as your Personal.

You can edit, replace or remove any tab part or add personal notes – all changes will be seen only by you.

Personal tabs can be accessed anytime from any device, even offline.
Learn more »
Give kudos to tab author, rate the tab!
1 2 3 4 5
comments
print report bad tab
1 comment total.
0 reply
Bassistboy 10 Jun 09, 2007 04:32 AM

Good job.

guest
You may want to rate the tab now too:
select rating
Wanna post a correction for this tab? Suggest correction