Oops, an error
Loading. Please wait.

Nowhere Kids tab

version 2
version 2

Whole song

524 views 1 this week
no commentswrite comment
1 2 3 4 5
1 last vote to show rating
add to favorites
×
Save as Personal and add changes to this tab that will be seen only by you. Learn more ›
×
You can save this tab as Personal to edit and correct it or add notes. All changes will be seen only by you. Learn more »
launch autoscroll
font size
0
reset
how to read this tab
guitar tuner
edit
Autoscroll
slow
fast
+/-
esc
set tempo
stop
* MEANS HARMONIC

Intro:
Center Guitar 2(4x)
D#|------------------------------------------------|
A#|-5--5--7--7--5--5--7--7--2--2--3--3--------5--5-|
F#|-0--0--0--0--0--0--0--0--0--0--0--0--3--3--0--0-|
C#|------------------------------------------------|
G#|------------------------------------------------|
C#|------------------------------------------------|

Right Guitar(4x)
D#|------------------------------------------------|
A#|------------------------------------------------|
F#|------------------------------------------------|
C#|-0--0--0--0--0--0--0--0--0--0--0--0--0--0--0--0-|
G#|------------------------------------------------|
C#|------------------------------------------------|

Center Guitar 1(2x)
D#|------------------------------------|
A#|----------------------------------6-|
F#|----7-----7-----7-----7-------------|
C#|-------------------------8--6-------|
G#|----5-----5-----5-----5--------8----|
C#|-0-----0-----0-----0----------------|


Main Riff:
Center Guitar 1 and 2(2x)
D#|------------------------------------|
A#|----------------------------------6-|
F#|----7-----7-----7-----7-------------|
C#|-------------------------8--6-------|
G#|----5-----5-----5-----5--------8----|
C#|-0-----0-----0-----0----------------|


Verse:
Center Guitar 1 and 2
D#|-----------------------------------------------|
A#|-----------------------------------------------|
F#|-----11-11-11-11-11-11-11-11-11-11-11-11-11-11-|
C#|-----------------------------------------------|
G#|-0-0-9--9--9--9--9--9--9--9--9--9--9--9--9--9--|
C#|-0-0-------------------------------------------|

D#|---------------------------------------------------|
A#|---------------------------------------------------|
F#|---------11-11-11-11-11-11-11-11-11-11-11-11-11-11-|
C#|---------------------------------------------------|
G#|-0-12-12-9--9--9--9--9--9--9--9--9--9--9--9--9--9--|
C#|-0-12-12-------------------------------------------|

D#|---------------------------------------------------|
A#|---------------------------------------------------|
F#|---------11-11-11-11-11-11-11-11-11-11-11-11-11-11-|
C#|---------------------------------------------------|
G#|------0-0-9--9--9--9--9--9--9--9--9--9--9--9--9--9-|
C#|-12\--0-0------------------------------------------|

D#|---------------------------------------------------|
A#|---------------------------------------------------|
F#|---------11-11-11-11-11-11-11-11-11-11-11-11-11-11-|
C#|---------------------------------------------------|
G#|-0-12-12-9--9--9--9--9--9--9--9--9--9--9--9--9--9--|
C#|-0-12-12-------------------------------------------|

D#|-------------------------------|
A#|-------------------------------|
F#|-------------------------------|
C#|------7---5/7---5/7------------|
G#|------5---3/5---3/5----7p5p0h5-|
C#|-12\----0-----0-----00-7p5p0h5-|

D#|---------------------------|
A#|---------------------------|
F#|---------------------------|
C#|-7---5/7-------------------|
G#|-5---3/5----7h10p7--7p5h10-|
C#|---0-----00-7h10p7--7p5h10-|

D#|--------------------------|
A#|--------------------------|
F#|--------------------------|
C#|-7---5/7---5/7------------|
G#|-5---3/5---3/5----7p5p0h5-|
C#|---0-----0-----00-7p5p0h5-|

D#|--------------------------|
A#|--------------------------|
F#|--------------------------|
C#|-7---5/7---5/7------------|
G#|-5---3/5---3/5----7p5p3p0-|
C#|---0-----0-----00-7p5p3p0-|


Pre Chorus:
Right Guitar
D#|------------------------------------|
A#|----------------------------------6-|
F#|----7-----7-----7-----7-------------|
C#|-------------------------8--6-------|
G#|----5-----5-----5-----5--------8----|
C#|-0-----0-----0-----0----------------|

D#|------------------------|
A#|------------------------|
F#|----7-----7-----7-----7-|
C#|------------------------|
G#|----5-----5-----5-----5-|
C#|-0-----0-----0-----0----|

Left Guitar
D#|------------------------------------|
A#|----------------------------------6-|
F#|----7-----7-----7-----7-------------|
C#|-------------------------8--6-------|
G#|----5-----5-----5-----5--------8----|
C#|-0-----0-----0-----0----------------|

D#|------------------------------------|
A#|----------------------------------6-|
F#|----7-----7-----7-----7-------------|
C#|-------------------------8--6-------|
G#|----5-----5-----5-----5--------8----|
C#|-0-----0-----0-----0----------------|


Chorus:
Center Guitar 1 and 2(3x)
D#|----------------------------------------------------------|
A#|----------------------------------------------------------|
F#|-------------------------------------77----77----77----77-|
C#|----------------------------------------------------------|
G#|-8-8-8-8-8-8-8-8-5-5-5-5-5-5-5-5-----55----55----55----55-|
C#|-8-8-8-8-8-8-8-8-5-5-5-5-5-5-5-5--00----00----00----00----|

(2x)
D#|-----------------------------------------|
A#|-----------------------------------------|
F#|-----------------------------------------|
C#|-----------------------------------------|
G#|-8-8-8-8-8-8-8-8-10-10-10-10-10-10-10-10-|
C#|-8-8-8-8-8-8-8-8-10-10-10-10-10-10-10-10-|


Repeat Riff


Repeat Verse


Pre Chorus:
Right Guitar
D#|------------------------------------|
A#|----------------------------------6-|
F#|----7-----7-----7-----7-------------|
C#|-------------------------8--6-------|
G#|----5-----5-----5-----5--------8----|
C#|-0-----0-----0-----0----------------|

D#|--------------------------------|
A#|------------------------------7-|
F#|----7-----7-----7-----7---------|
C#|-------------------------8--6---|
G#|----5-----5-----5-----5---------|
C#|-0-----0-----0-----0------------|
                                 *
Left Guitar
D#|------------------------------------|
A#|----------------------------------6-|
F#|----7-----7-----7-----7-------------|
C#|-------------------------8--6-------|
G#|----5-----5-----5-----5--------8----|
C#|-0-----0-----0-----0----------------|

D#|--------------------------------|
A#|------------------------------5-|
F#|----7-----7-----7-----7---------|
C#|-------------------------8--6---|
G#|----5-----5-----5-----5---------|
C#|-0-----0-----0-----0------------|
                                 *


Repeat Chorus


Bridge:
Center Guitar 2(2x)
D#|------------------------------------------------|
A#|-5--5--7--7--5--5--7--7--2--2--3--3--------5--5-|
F#|-0--0--0--0--0--0--0--0--0--0--0--0--3--3--0--0-|
C#|------------------------------------------------|
G#|------------------------------------------------|
C#|------------------------------------------------|

Right Guitar(2x)
D#|------------------------------------------------|
A#|------------------------------------------------|
F#|------------------------------------------------|
C#|-0--0--0--0--0--0--0--0--0--0--0--0--0--0--0--0-|
G#|------------------------------------------------|
C#|------------------------------------------------|

Left Guitar(2x)
D#|--------------------|
A#|--------------------|
F#|--------------------|
C#|--------------------|
G#|--5-----------5-----|
C#|-----5--7--5-----5--|
     *  *  *  *  *  *


Solo:
Center Guitar 1(The solo is actually done with an octave generator, specifically the Micro Pog pedal
, but if you don't have an octave generator just play the harmony like I have on the tab because it sounds cool
lol)
D#|---------------------------------------------------------------|
A#|-15~~~13~~~11~~~10~~~0/10--0/11--0/13--0/15--0/17--0/18--0/18b-|
F#|---------------------------------------------------------------|
C#|---------------------------------------------------------------|
G#|---------------------------------------------------------------|
C#|---------------------------------------------------------------|

Center Guitar 2
D#|---------------------------------------------------------------|
A#|-19~~~17~~~15~~~14~~~3/14--3/15--3/17--3/19--3/20--3/22--3/22b-|
F#|---------------------------------------------------------------|
C#|---------------------------------------------------------------|
G#|---------------------------------------------------------------|
C#|---------------------------------------------------------------|


Repeat Chorus


Repeat Riff
Suggest correction
Creating personal tab
Creating personal tab
You can edit any tab online and save it as your Personal.

You can edit, replace or remove any tab part or add personal notes – all changes will be seen only by you.

Personal tabs can be accessed anytime from any device, even offline.
Learn more »
Give kudos to tab author, rate the tab!
1 2 3 4 5
comments
print report bad tab
guest
You may want to rate the tab now too:
select rating
Wanna post a correction for this tab? Suggest correction