Oops, an error
Loading. Please wait.

Save Me tab

version 2
version 2
83,098 views 54 this week
21 commentsread comments
1 2 3 4 5
x 33
add to favorites
×
Save as Personal and add changes to this tab that will be seen only by you. Learn more ›
×
You can save this tab as Personal to edit and correct it or add notes. All changes will be seen only by you. Learn more »
launch autoscroll
font size
0
reset
how to read this tab
guitar tuner
backing track
0:00
0:00
edit
Autoscroll
slow
fast
+/-
esc
set tempo
stop
Tabbed by : maxwseven@yahoo.com
Title     : Save Me
Band      : Shinedown
Tuning    : Drop D|DADGBe|
(slightly distorted)

E|----------------|----------------|
B|----------------|----------------|
G|----------------|----------------|
D|----------------|----------------|
A|----------------|----------------|
D|----------------|----------------|

E|----------------|----------------|
B|----------------|----------------|
G|---6br----------|---6br--4--3----|
D|------7---------|------7---------|
A|----------------|----------------|
D|----------------|----------------|

E|----------------|----------------|
B|0---------------|----------------|
G|4----------6br--|--------4--3----|X2
D|4-------------7-|----------------|
A|2---------------|----------------|
D|----------------|----------------|
     I've got a candle...
     I live in a ...

E|----------------|----------------|
B|---0-------5----|---2----0--2----|
G|--4-------7-----|--2-----4--3----|
D|-4-------7------|-2------5--4----|
A|2-------5-------|0-------5--4----|
D|----------------|----------------|
And under the window seal...
(play that part a little harder, in crescendo)

e|--------------------------------|
B|--------------------------------|
G|44444444777777776666666644443333|
D|44444444777777776666666644443333|
A|22222222555555554444444422221111|
D|--------------------------------|
  A touch of concrete...

[STEP ON IT HERE](full distortion)
e|--------------------------------|
B|--------------------------------|
G|44444444------------------------|X2
D|44444444444444447777777755554444|
A|22222222444444447777777755554444|
D|--------444444447777777755554444|
  Someone save me if you will...
  And please just save me...

     (back to sligh distortion)
E|---------------|--------3--2---|  
B|---------------|--------3--2---|  
G|4--6br---------|---6br--4--3---|  
D|4-----7--------|------7-5--4---|  
A|2--------------|4-------5--4---|  
D|---------------|---------------|  
                                            
E|----------------|---------------|
B|----------------|---------------|
G|-----------6br--|-------4--3----|X2
D|--------------7-|---------------|
A|----------------|---------------|
D|----------------|---------------|
How did I get here...
Couldn't handle forgiveness...
                                  
E|--------------------------------|  
B|--------------------------------|  
G|4444444477777777----------------|  
D|44444444777777777777777755544444|  
A|22222222555555557777777755544444|  
D|----------------7777777755544444|  
And I can hardly remember...      

(Crescendo here)
e|--------------------------------|
B|--------------------------------|
G|44444444777777776666666644443333|
D|44444444777777776666666644443333|
A|22222222555555554444444422221111|
D|--------------------------------|
(How could I love this...)

[BACK ON](full distortion)
e|----------------------------------|
B|----------------------------------|
G|44444444--------------------------|X2
D|4444444444444444447777777755554444|
A|2222222244444444447777777755554444|
D|--------44444444447777777755554444|
Someone save me if you will...
And please just save me...

[Solo]
E|---------|     
B|---------|     
G|----7----|X3   
D|-/9---9--|     
A|---------|     
D|---------|     
                                 
e|-----------------|
B|-----------------|
G|--7-9-9b---9r-77-|
D|-----------------|
A|-----------------|
D|-----------------|

E|--------------------------------|  
B|-17br17-15br15--17br17h15h17-17-|  
G|-16br---14br--------------------|  
D|--------------------------------|  
A|--------------------------------|  
D|--------------------------------|  

e|---------------------------------|
B|---------------------------------|
G|-----16-14-----------------------|
D|-/16-------16-15-16-15-14-13-15b-|
A|---------------------------------|
D|---------------------------------|

e|------------------------------|   
B|---15--/17----15-h16p15----15-|   
G|-15--15-----------------h16---|   
D|------------------------------|   
A|------------------------------|   
D|------------------------------|   

|-----------------------------------|
|-----------------------------------|
|-----------------------------------|
|-16-14-\12-/16---16-\14-\12--------|
|---------------------------h13-/14-|
|-----------------------------------|

e|--------------------------------|
B|--------------------------------|
G|4444444477777777----------------|X3
D|44444444777777777777777755554444|
A|22222222555555557777777755554444|
D|----------------7777777755554444|
(Jump... in the water...)
(Jump... on the altar...)
(My hardest question...)

e|------------------------------------------|
B|------------------------------------------|
G|4444444--7777777--------------------------|
D|4444444--7777777--7-7-7-7-77-5-5-5-44-4444|
A|2222222--5555555--7-7-7-7-77-5-5-5-44-4444|
D|------------------7-7-7-7-77-5-5-5-44-4444|
(is Why...)

e|----------------------------------|
B|----------------------------------|
G|44444444--------------------------|X2
D|4444444444444444447777777755554444|
A|2222222244444444447777777755554444|
D|--------44444444447777777755554444|
(Someone save me if you will...)
(And please just save me...)

e|--------------------------------|--------------------------------|
B|--------------------------------|--------------------------------|
G|4444444477777777----------------|44444444777777776666666644443333|
D|44444444777777777777777755554444|44444444777777776666666644443333|
A|22222222555555557777777755554444|22222222555555554444444422221111|
D|----------------7777777755554444|--------------------------------|
(Someone save me...               Somebody save me...)

e|-------|
B|-------|
G|4444444|
D|4444444|
A|2222222|
D|-------|

************************************

| br  Bend release
| /   Slide up
| r   Release
| b   Bend
| h   Hammer-on
| p   Pull-off
| \   Slide down

************************************

            
            
Suggest correction
Creating personal tab
Creating personal tab
You can edit any tab online and save it as your Personal.

You can edit, replace or remove any tab part or add personal notes – all changes will be seen only by you.

Personal tabs can be accessed anytime from any device, even offline.
Learn more »
comments
print report bad tab
21 comments total. Showing first comments.
0 reply
mikedoty 10 Nov 06, 2005 02:24 PM

nice job, max

0 reply
jelloman 10 Nov 23, 2005 06:18 AM

what the hell does br mean? ex 6br

+2 reply
ZepFloydRock101 10 Dec 04, 2005 03:58 PM

^ full bend on 6 and return

Sounds good...but Why Drop D though?
Easier in Standard.

guest
You may want to rate the tab now too:
select rating
Wanna post a correction for this tab? Suggest correction