Oops, an error
Loading. Please wait.

Save Me Acoustic tab

version 7
version 7
5,469 views 9 this week
5 commentsread comments
1 2 3 4 5
1 last vote to show rating
add to favorites
×
Save as Personal and add changes to this tab that will be seen only by you. Learn more ›
×
You can save this tab as Personal to edit and correct it or add notes. All changes will be seen only by you. Learn more »
launch autoscroll
font size
0
reset
how to read this tab
guitar tuner
backing track
0:00
0:00
edit
Autoscroll
slow
fast
+/-
esc
set tempo
stop
This save me tab is from their performence on 92.3 k-rock. they performed this a little 
enjoy its in  standered tuning

tabber:Casey Ladd

Guitar 1- Zakk(rythem)

Guitar 2- Nick(Lead)

Intro
Guitar 1 strumming pattern is pretty straight forward
  bm  d  a  g  e
E -2--2---0--3--0--|
B -2--3---0--3--0--|
G -4--2---2--0--0--|x2 play without e second time
D -4------2--0--2--|
A -2---------0--2--|
E -2---------3--0--|

guitar 2 after guitar 1 plays through it once play
------------------------------0--------|
------------------------------0--------|
--6br-----6br-------4---3-----4--------|
-------7--------7-------------4--------|
------------------------------2--------|
---------------------------------------|

verse
Guitar 1
  bm  d  a  g
E -2--2---0--3--|
B -3--3---0--3--|
G -4--2---2--0--| x2
D -4------2--0--|
A -2---------0--|
E -2---------3--|

Guitar 2
----------------------0--------|
----------------------0--------|
--6br--------4--3-----4--------|
---------7------------4--------| x2
----------------------2--------|
-------------------------------|

Bridge
guitar 1
  bm  d  a  g  e
E -2--2---0--3--0--|
B -2--3---0--3--0--|
G -4--2---2--0--0--|
D -4------2--0--2--|
A -2---------0--2--|
E -2---------3-----|
then
-----------------------------|
-----------------------------|
---4444-7777-6666-4444-3333--|
---xxxx-xxxx-xxxx-xxxx-xxxx--|
---2222-5555-4444-2222-1111--|
-----------------------------|

guitar 2
-7*-------------7*-------------------------------------------|
-----7*----12*------7*---12*---------------------------------|
----------------------------------4444-7777--6666-4444-3333--|
----------------------------------xxxx-xxxx--xxxx-xxxx-xxxx--|
----------------------------------2222-5555--4444-2222-1111--|
-------------------------------------------------------------|

Chorus both
--------------------------------|
-------2---------------2--------|
-4--7--2---------4-----2--------|
-4--7--2--5--4---4--4--2--5--4--|
-2--5-----5--4---2--4-----5--4--|
----------3--2------2-----3--2--|

repeat intro,verse and chorus

Solo
guitar 1 plays chorus

Guitar 2
------------------------------------------------------|
------------------------------------------------------|
------7---------7---------7-7-----7-8-9br-7v------7v--|
--7h9---9v--7h9---9v--7h9-----9v--------------9-8-----|
------------------------------------------------------|
------------------------------------------------------|

-----------------------------------------------------------|
-----------------------------------------------------------|
------------------------------------------------------9v---|
9p8p7-------------------------------------------7h8h9------|
-------9p8p7----------5---5--7-5---------5h6h7-------------|
--------------9p8p7/----7--------7v--5h7-------------------|


------------------------------------------|
-7------7------7------7------------9b-9r--|
---10p9---10p9---10p9---10v--7h8h9--------|
------------------------------------------|
------------------------------------------|
------------------------------------------|

bridge both
--------------------------------------------------------|
--------------------------------------------------------|
-4444--66666666--444--333----4444--6666--777------------|
-xxxx--xxxxxxxx--xxx--xxx-x2-xxxx--xxxx--777--555--444--|
-2222--44444444--222--111----2222--4444--555--555--444--|
----------------------------------------------333--222--|

-------------------------|
-------------------------|
-4444--7777--------------|
-4444--7777--5555--4444--|
-2222--5555--5555--4444--|
-------------3333--2222--|

chorus till end of song
Suggest correction
Creating personal tab
Creating personal tab
You can edit any tab online and save it as your Personal.

You can edit, replace or remove any tab part or add personal notes – all changes will be seen only by you.

Personal tabs can be accessed anytime from any device, even offline.
Learn more »
Give kudos to tab author, rate the tab!
1 2 3 4 5
comments
print report bad tab
5 comments total. Showing first comments.
0 reply
Lovemonk69 83 Jul 30, 2009 06:27 AM

Hey,

Good stuff, although I think the Em is wrong in the verse and I kinda think the solo is off. Maybe some slides instead of pulloffs hammer ons... and/or just different notes. I'm watching along with it and I dunno, just seems off.

But total props for what you've done, s'far more than I could. :)

0 reply
littlerocker141 154 Jul 31, 2009 11:35 AM

hey thanks, the verse is either em or just a f,and im missing apart at the end of the solo

0 reply
littlerocker141 154 Jul 31, 2009 02:30 PM

No, the solo is correct just play kinda slow

guest
You may want to rate the tab now too:
select rating
Wanna post a correction for this tab? Suggest correction