Oops, an error
Loading. Please wait.
We have Chord Pro version of Second Chance.
It's the closest thing you can get to the original song and it has interactive parts. Check out the tab »
×
10,487 views 3 this week
1 commentread comment
1 2 3 4 5
3 more votes to show rating
add to favorites
×
Save as Personal and add changes to this tab that will be seen only by you. Learn more ›
×
You can save this tab as Personal to edit and correct it or add notes. All changes will be seen only by you. Learn more »
launch autoscroll
font size
0
reset
guitar tuner
backing track
0:00
0:00
edit
Autoscroll
slow
fast
+/-
esc
set tempo
stop
Author
Shinedown Second Chance

This the way I play along to the song.  It is not intended to be exact.

Verse x2
G|---------------------------------------------------------|
D|---------------------------------------------------------|
A|--3--3-3--3-3--6--6-6--6-6-------------------------------|
D|----------------------------6--6-6--6-6--6--6-6--6-6-----|

Pre-Chorus x1
G|--------------------------------------------------h----h----|
D|------------------------------------------------------------|
A|-1-1---3----1----3-3----3----3----6-6-6-6-6-6-6-6-6---------|
D|-----3----3---3-------5----5---5-----------------------6----|

G|------------------------------------------------------------------|
D|------------------------------------------------------------------|
A|-1-1---3----1----3-3----3----3------------------------------------|
D|-----3----3---3-------5----5---5--3-3-3-3-3-3-3-3-3-3-3-3-3-3-3-3-|

Chorus
G|------------------------------------------------------------------|
D|------------------------------------------------------------------|
A|-3-3-3-3-3-3-3-3-6-6-6-6-6-6-6-6----------------------------------|
D|---------------------------------3-3-3-3-3-3-3-3-6-6-6-6-6-6-6-6--|

G|------------------------------------------------------------------|
D|------------------------------------------------------------------|
A|-3-3-3-3-3-3-3-3-6-6-6-6-6-6-6-6----------------------------------|
D|---------------------------------3-3-3-3-3-3-3-3-6-6-6-6-6-6-6-6--|

G|------------------------------------------------------------------|
D|------------------------------------------------------------------|
A|-3-3-3-3-3-3-3-3-6-6-6-6-6-6-6-6-8-8-8-8-8-8-8-8------------------|
D|-------------------------------------------------6-6-6-6-6-6-6-6--|

Verse
Pre-Chorus
Chorus

Bridge            (Play as half notes or each note multiple times depending on mood)
G|-----------------------------------------------------------------------------------|
D|-----------------------------------------------------------------------------------|
A|-----------------------------------------------------------------------------------|
D|6-6-6-6-6-6-6-6-3----6----13----8----3----6----13----8----3----6----1----8----8----|

Chorus

Outro
                   (Can play as half or whole notes      )
G|--------------------------------------------------------------|
D|--------------------------------------------------------------|
A|--------------------------------------------------------------|
D|-6-6-6-6-6-6-6-6-10-10-10-10-10-10-10-10-3-3-3-3-3-3-3-3-6hold|

            
            
Suggest correction
Creating personal tab
Creating personal tab
You can edit any tab online and save it as your Personal.

You can edit, replace or remove any tab part or add personal notes – all changes will be seen only by you.

Personal tabs can be accessed anytime from any device, even offline.
Learn more »
Give kudos to tab author, rate the tab!
1 2 3 4 5
comments
print report bad tab
1 comment total.
0 reply
ninasophie 31 Jun 25, 2009 10:45 PM

Nice tab :)

guest
You may want to rate the tab now too:
select rating
Wanna post a correction for this tab? Suggest correction