Oops, an error
Loading. Please wait.

Second Chance Tab

version 2
version 2

Whole song

Interactive

Video

30,884 views 18 this week
2 commentsread comments
1 2 3 4 5
x 3
add to favorites
launch autoscroll
font size
0
reset
how to read this tab
guitar tuner
Autoscroll
slow
fast
+/-
esc
set tempo
stop
Help us to improve Ultimate-Guitar.com Take our survey!
×
Author
Difficulty
novice
Electric Guitar tuned half-step down (Eb-Ab-Db-Gb-Bb-Eb)
Acoustic guitar standard, but capo to the third fret

Acoustic Intro
---4---4---5---5-|
---5---5---5---5-|
---6---4---6---6-|
---6---6---7---7-|
---4---7---7---7-|
-----------5---5-|

or Am-C-F-F

Verse
Acoustic (Capo 3)
Am-C-F-F (repeat accordingly)

Electric  clean(or something like this)
-----4--4------4--4----5--5-----5--5-----|
----5--5--5--5--5--5--5--5--5--5--5--5---|
---6--6-6--4--4--4--6--6--6--6--6--6-----|
-----------------------------------------|
-----------------------------------------|
-----------------------------------------|

Pre Chorus
Acoustic
G-Am-F-C/B-G-Am-D

Electric Clean
---2-4-0-----2-4----------------|
---4-5-2-----4-5----------------|
---4-6-2-9-9-4-6----------------|
---4-6-2-9-9-4-6-----------4444-|
---2-4-0-7-6-2-4-44444444444444-|
-----------------22222222222222-|
                (distortion kicks in)

Chorus
Acoustic
Am-C-D-F (repeat accordingly)

Electric distortion (repeat accordingly)
-------------|
-------------|
---6-----2---|
---6-2-4-2---|
---4-2-4-0---|
-----0-2-----|

Bridge
Acoustic
D-F-C-G X2 D-F-G

Electric distortion
---------------|
---------------|
-----2-9-------|
---4-2-9-9-----|
---4-0-7-9-----|
---2-----7-----| X2
then
-------------|
-------------|
-----2-4-----|
---4-2-4-----|
---4-0-2-----|
---2---------|

It goes in this order I believe
Intro
Verse X2
Pre-Chorus
Chorus
Verse X2
Pre-Chorus
Chorus
Bridge
ChorusX2

End on the Ab bar chord for electric and on the F for acoustic

All by ear, will accept corrections, but please, try not to be a smart ass
Suggest correction
Give kudos to tab author, rate the tab!
1 2 3 4 5
comments
print report bad tab
2 comments total.
0 reply
GreenAiden555 111 Aug 19, 2009 01:30 AM

This is a REALLY great tab, I must say, 5-stars, however, I found 2 slight things wrong...

For the intro, what you have tabbed out there for the acoustic should be down a half-step, and for the pre chorus, it should go from C to Am, not B.

Other than that, I'd just suggest that the song be played on the electric in standard, which is how I do it, but no biggie.

Again, GREAT tab.

0 reply
pnkr0cker 1,847 Sep 08, 2009 02:51 PM

If you listen hard, there's a tremelo guitar that follows the rhythm.

guest
You may want to rate the tab now too:
select rating
Wanna post a correction for this tab? Suggest correction