Oops, an error
Loading. Please wait.

Second Chance Tab

version 3
version 3

Whole song

Interactive

Video

89,549 views 30 this week
2 commentsread comments
1 2 3 4 5
x 42
add to favorites
launch autoscroll
font size
0
reset
how to read this tab
guitar tuner
×
Best way to learn
"Second Chance"
Autoscroll
slow
fast
+/-
esc
set tempo
stop
Author
Difficulty
Second Chance - Shinedown
Tabbed by: glade8316
Email: gladenielson@yahoo.com
Tuning: standard (E A D G B e)

[Intro]
e|--------------------------|
B|--------------------------|
G|---5~----8~---------------|
D|---5~----8~----6~----6~---|
A|---3~----6~----6~----6~---|
E|---------------4~----4~---|

[Verse]
e|------------------------------------------|
B|------------------------------------------|
G|---5-55-555-8-88-888----------------------|
D|---5-55-555-8-88-888-6-66-666--6-66-666---| X 2
A|---3-33-333-6-66-666-6-66-666--6-66-666---|
E|---------------------4-44-444--4-44-444---|

[Pre-Chorus]
e|-----------------------------------------|
B|-----------------------------------------|
G|---3-33-333-5-55-555----------88887777---|
D|---3-33-333-5-55-555-6-66-666-88888888---|
A|---1-11-111-3-33-333-6-66-666-66665555---|
E|---------------------4-44-444------------|

e|---------------------------------------------------|
B|---------------------------------------------------|
G|---3-33-333-5-55-555-------------------------------|
D|---3-33-333-5-55-555-3~--3-3-3-3-3-3-3-3-3-3-3-3---|
A|---1-11-111-3-33-333-3~--3-3-3-3-3-3-3-3-3-3-3-3---|
E|---------------------1~--1-1-1-1-1-1-1-1-1-1-1-1---|

[Chorus]
e|-----------------------------------------------------------------------------|
B|-----------------------------------------------------------------------------|
G|---5-5-5-5-5-5-5-5-8-8-8-8-8-8-8-8-10-10-10-10-10-10-10-10-------------------|
D|---5-5-5-5-5-5-5-5-8-8-8-8-8-8-8-8-10-10-10-10-10-10-10-10-6-6-6-6-6-6-6-6---| X 2
A|---3-3-3-3-3-3-3-3-6-6-6-6-6-6-6-6--8--8--8--8--8--8--8--8-6-6-6-6-6-6-6-6---|
E|-----------------------------------------------------------4-4-4-4-4-4-4-4---|

e|------------------------------------------------------------------|
B|------------------------------------------------------------------|
G|---5-5-5-5-5-5-5-5-8-8-8-8-8-8-8-8-10-10-10-10-10-10-10-10--------|
D|---5-5-5-5-5-5-5-5-8-8-8-8-8-8-8-8-10-10-10-10-10-10-10-10---6~---|
A|---3-3-3-3-3-3-3-3-6-6-6-6-6-6-6-6--8--8--8--8--8--8--8--8---6~---|
E|-------------------------------------------------------------4~---|

[Verse]
e|------------------------------------------|
B|------------------------------------------|
G|---5-55-555-8-88-888----------------------|
D|---5-55-555-8-88-888-6-66-666--6-66-666---| X 2
A|---3-33-333-6-66-666-6-66-666--6-66-666---|
E|---------------------4-44-444--4-44-444---|

[Pre-Chorus]
e|-----------------------------------------|
B|-----------------------------------------|
G|---3-33-333-5-55-555----------88888888---|
D|---3-33-333-5-55-555-6-66-666-88888888---|
A|---1-11-111-3-33-333-6-66-666-66665555---|
E|---------------------4-44-444------------|

e|---------------------------------------------------|
B|---------------------------------------------------|
G|---3-33-333-5-55-555-------------------------------|
D|---3-33-333-5-55-555-3~--3-3-3-3-3-3-3-3-3-3-3-3---|
A|---1-11-111-3-33-333-3~--3-3-3-3-3-3-3-3-3-3-3-3---|
E|---------------------1~--1-1-1-1-1-1-1-1-1-1-1-1---|

[Chorus]
e|-----------------------------------------------------------------------------|
B|-----------------------------------------------------------------------------|
G|---5-5-5-5-5-5-5-5-8-8-8-8-8-8-8-8-10-10-10-10-10-10-10-10-------------------|
D|---5-5-5-5-5-5-5-5-8-8-8-8-8-8-8-8-10-10-10-10-10-10-10-10-6-6-6-6-6-6-6-6---|(X2)
A|---3-3-3-3-3-3-3-3-6-6-6-6-6-6-6-6--8--8--8--8--8--8--8--8-6-6-6-6-6-6-6-6---|
E|-----------------------------------------------------------4-4-4-4-4-4-4-4---|

e|-------------------------------------------------------------|
B|-------------------------------------------------------------|
G|---5-5-5-5-5-5-5-5-8-8-8-8-8-8-8-8-10-10-10-10-10-10-10-10---|
D|---5-5-5-5-5-5-5-5-8-8-8-8-8-8-8-8-10-10-10-10-10-10-10-10---|
A|---3-3-3-3-3-3-3-3-6-6-6-6-6-6-6-6--8--8--8--8--8--8--8--8---|
E|-------------------------------------------------------------|

[End chorus]
e|-------------------------------------|
B|-------------------------------------|
G|-------------------------------------|
D|---6-6-6-6-6-6-6-6-6-6-6-6-6-6-6-6---|
A|---6-6-6-6-6-6-6-6-6-6-6-6-6-6-6-6---|
E|---4-4-4-4-4-4-4-4-4-4-4-4-4-4-4-4---|

[Bridge]
e|----------------------------------------|
B|----------------------------------------|
G|---------------------8------------------|
D|---3--x--6~---6-6-6--8--x--8~---8-8-8---|(X2)
A|---3--x--6~---6-6-6--6--x--8~---8-8-8---|
E|---1--x--4~---4-4-4-----x--6~---6-6-6---|

e|--------------------------------------------------------|
B|--------------------------------------------------------|
G|--------------------------------------------------------|
D|---3--x--6~---6-6-6---8-8-8-8-8-8-8-8-8-8-8-8-8-8-8-8---|
A|---3--x--6~---6-6-6---8-8-8-8-8-8-8-8-8-8-8-8-8-8-8-8---|
E|---1--x--4~---4-4-4---6-6-6-6-6-6-6-6-6-6-6-6-6-6-6-6---|

[Chorus]
e|-----------------------------------------------------------------------------|
B|-----------------------------------------------------------------------------|
G|---5-5-5-5-5-5-5-5-8-8-8-8-8-8-8-8-10-10-10-10-10-10-10-10-------------------|
D|---5-5-5-5-5-5-5-5-8-8-8-8-8-8-8-8-10-10-10-10-10-10-10-10-6-6-6-6-6-6-6-6---| X 2
A|---3-3-3-3-3-3-3-3-6-6-6-6-6-6-6-6--8--8--8--8--8--8--8--8-6-6-6-6-6-6-6-6---|
E|-----------------------------------------------------------4-4-4-4-4-4-4-4---|

e|-------------------------------------------------------------|
B|-------------------------------------------------------------|
G|---5-5-5-5-5-5-5-5-8-8-8-8-8-8-8-8-10-10-10-10-10-10-10-10---|
D|---5-5-5-5-5-5-5-5-8-8-8-8-8-8-8-8-10-10-10-10-10-10-10-10---|
A|---3-3-3-3-3-3-3-3-6-6-6-6-6-6-6-6--8--8--8--8--8--8--8--8---|
E|-------------------------------------------------------------|

[End chorus]
e|-------------------------------------|
B|-------------------------------------|
G|-------------------------------------|
D|---6-6-6-6-6-6-6-6-6-6-6-6-6-6-6-6---|
A|---6-6-6-6-6-6-6-6-6-6-6-6-6-6-6-6---|
E|---4-4-4-4-4-4-4-4-4-4-4-4-4-4-4-4---|

[End]
e|----------------------------------------|
B|----------------------------------------|
G|---5-5-5-5-5-5-5-5-8-8-8-8-8-8-8-8------|
D|---5-5-5-5-5-5-5-5-8-8-8-8-8-8-8-8-6~---|
A|---3-3-3-3-3-3-3-3-6-6-6-6-6-6-6-6-6~---|
E|-----------------------------------4~---|

************************************

| ~  Vibrato
| x  Dead note

************************************
Suggest correction
comments
print report bad tab
2 comments total.
-1 reply
Deathro 67 Apr 27, 2010 02:18 PM

You only did the 2nd guitar in this. the 1st one has the Tremble, echo, and delay all in it, so dont get on this guys case if it doesnt sound like it.

guest
You may want to rate the tab now too:
select rating
Wanna post a correction for this tab? Suggest correction