Oops, an error
Loading. Please wait.

Someday tab

version 1
version 1

Whole song

Interactive

6,938 views 6 this week
2 commentsread comments
1 2 3 4 5
x 7
add to favorites
×
Save as Personal and add changes to this tab that will be seen only by you. Learn more ›
×
You can save this tab as Personal to edit and correct it or add notes. All changes will be seen only by you. Learn more »
launch autoscroll
font size
0
reset
how to read this tab
guitar tuner
edit
Autoscroll
slow
fast
+/-
esc
set tempo
stop
Author
Difficulty
============================================================================
Title: *Someday*
Artist: Shinedown
Album: Us and Them
============================================================================
Track: -13-
============================================================================
Tuning: STANDARD ( EADGBE )
Tablatured by Asa Gaston
============================================================================

INTRO-VERSE

     A  C#m     D          B

E:---0---4---------2h3p2---2---\
B:---2---5-------3---------4---\
G:---2---6-----2-----------4---\
D:---2---6---0-------------4---\  4x
A:---0---4-----------------2---\
E:---0---4-----------------2---\

CHORUS

E:---0---4---2---2---\
B:---2---5---3---4---\
G:---2---6---2---4---\
D:---2---6---0---4---\  2x
A:---0---4---x---2---\
E:---0---4---x---2---\

VERSE 2

     A  C#m     D          B

E:---0---4---------2h3p2---2---\
B:---2---5-------3---------4---\
G:---2---6-----2-----------4---\
D:---2---6---0-------------4---\  4x
A:---0---4-----------------2---\
E:---0---4-----------------2---\

CHORUS

E:---0---4---2---2---\
B:---2---5---3---4---\
G:---2---6---2---4---\
D:---2---6---0---4---\  2x
A:---0---4---x---2---\
E:---0---4---x---2---\

BRIDGE

E:---0---4---0---4---0---4---2---\
B:---2---5---2---5---2---5---3---\
G:---2---6---2---6---2---6---2---\
D:---2---6---2---6---2---6---0---\
A:---0---4---0---4---0---4---x---\
E:---0---4---0---4---0---4---x---\

CHORUS

E:---0---4---2---2---\
B:---2---5---3---4---\
G:---2---6---2---4---\
D:---2---6---0---4---\  2x
A:---0---4---x---2---\
E:---0---4---x---2---\        

OUTRO

E:---2---2---\---0---4---\
B:---3---4---\---2---5---\
G:---2---4---\---2---6---\
D:---0---4---\---2---6---\
A:---x---2---\---0---4---\
E:---x---2---\---0---4---\

<><><><><><><><><><><><><><><><><><><><><><><><><><><><><><><><><><><><><><>
<><><><><><><><><><><><><><><><><><><><><><><><><><><><><><><><><><><><><><>
<><><><><><><><><><><><><><><><><><><><><><><><><><><><><><><><><><><><><><>

****************************************************************************
Lyrics*
****************************************************************************

Someday, when I'm older and they never know my never my. Somehow if I'm 
high. I could never feel ashamed. Maybe I was wrong to hold you up so 
high. Now I feel I've lost you to the feeling I kept inside.

I don't know if it felt like I wanted you here, the way that I wanted you 
last time. We're not on the same page, you don't even know me, Cause you
never took the time.

Someday, when it's over and you never show you're face. I hope you'lle
remember how I tried to make you a place. So now, I move on to keep
my piece of mind. I some way, I failed but I just ran out of time.

I don't know if it felt like I wanted you here, the way that I wanted you 
last time. We're not on the same page, you don't even know me, Cause you
never took the time.

I'm not sure that you hear me. I'm not sure that you look at me the same.
I will always be atatched to you, but I'm never gonna feel the same.

I don't know if it felt like I wanted you here, the way that I wanted you 
last time. We're not on the same page, you don't even know me, Cause you
never took the time. No, you never took the time.

Someday, when I'm older.

****************************************************************************

<><><><><><><><>
CHORD DIAGRAMS<>
<><><><><><><><>
         A*     C#m*     D*      B*    A6add9*  
E|---|---0---|---4---|---2---|---2---|---2---|-----------------------------|
B|---|---2---|---5---|---3---|---4---|---2---|-----------------------------|
G|---|---2---|---6---|---2---|---4---|---2---|-----------------------------|
D|---|---2---|---6---|---0---|---4---|---2---|-----------------------------|
A|---|---0---|---4---|---x---|---2---|---2---|-----------------------------|
E|---|---0---|---4---|---x---|---2---|---2---|-----------------------------|

++++++++++++++++++++++++++++++++++++++++++++++++++++++++++++++++++++++++++++
NOTE: This is probably the Shinedown song you have to grow on the most.
      Playing it helped me like alot more to ( as does most other
      songs ). If you don't play bar chords, keep trying. You can play
      pretty much any bar chord, once you've learned one. If you still
      have'nt bought their 'Us and Them' cd, and you've heard this from the
      radio, GET IT!!! I can give you 13 reasons why you should
      1-Dream
      2-Heroes
      3-Save Me
      4-I Dare You
      5-Yer Majesty
      6-Beyond the Sun
      7-Trade YOURself In
      8-Lady So Divine
      9-Shed Some Light
      10-Begin Again
      11-Atmosphere
      12-Fake
      13-Someday

      Those are good enough reasons, aren't they? The hammer-ons are easy;
      So don't let them scare you away ( you beginners ).
      Well... ...ENJOY!!!

                          -Asa    

            
            
Suggest correction
Creating personal tab
Creating personal tab
You can edit any tab online and save it as your Personal.

You can edit, replace or remove any tab part or add personal notes – all changes will be seen only by you.

Personal tabs can be accessed anytime from any device, even offline.
Learn more »
comments
print report bad tab
2 comments total.
0 reply
webbster87 97 Jun 24, 2008 11:33 PM

lyrics are wrong! wrong it "Someday, when I'm older and they never know my name. Somehow if i'm Honest. I could never feel ashamed." the rest of the lyric are close but some are wrong!

0 reply
G0dzilla 10 Jan 08, 2012 08:38 PM

Awesome tab, mate. As stated by that guy, ^, Lyrics are somewhat incorrect, but, no matter, haha. Also, you hit the nail right on the head with this song growing on you, I never really got into it until i found out how much i could relate to the lyrics, Brent Smith is just an incredible lyricist.

guest
You may want to rate the tab now too:
select rating
Wanna post a correction for this tab? Suggest correction