Oops, an error
Loading. Please wait.

Sound Of Madness Tab

version 1
version 1
121,383 views 24 this week
no commentswrite comment
1 2 3 4 5
x 8
add to favorites
launch autoscroll
font size
0
reset
how to read this tab
guitar tuner
Autoscroll
slow
fast
+/-
esc
set tempo
stop
Help us to improve Ultimate-Guitar.com Take our survey!
×
Author
Difficulty
Tuning
novice
D A D G B E
Guitar 1

E----------------------------|
B----------------------------|
G-1-1-1-0--------------------|
D---------3-0--3-0-0-0-0-0-0-|  [intro/verse]
A----------------------------|
d----------------------------|

(Yea I get it your an outcast ...)



Guitar 1 - intro

Guitar 2

E------------------------------|
B------------------------------|
G------------------------------|
D-6-6-6-5-3-0--3-0-0-0-0-3-0-0-|   [verse]
A-6-6-6-5-3-0--3-0-0-0-0-3-0-0-|
d-6-6-6-5-3-0--3-0-0-0-0-3-0-0-|

(Oh my here we go ...)




Guitar 1

E------------------|
B------------------|
G-1-1-1-1--0-0-0-0-|    [pre-chorus]
D------------------|
A------------------|
d------------------|


 Guitar 2

E------------------|
B------------------|
G------------------|
D-6-6-6-6--5-5-5-5-|    [pre-chorus]
A-6-6-6-6--5-5-5-5-|
d-6-6-6-6--5-5-5-5-|

(So take your medicine ...)




Guitar 1

E--------------------------------------------------|
B--------------------------------------------------|
G-15-----14-----12-----10----14-----10-----17------|
D -X-(4x)--X-(4x)--X-(4x)- X-(4x)--X-(16x)-X-(16x)-X-(16x)-|  [chorus]
A-13-----12-----10-----8-----12------8-----15------|
d--------------------------------------------------|

Guitar 2

E-------------------------------------------------------------------|
B-------------------------------------------------------------------|
G---------------------------------------------------5-5-5-5-5-5-5-5-|
D-8-8-8-8-8-8-8-8--0-0-0-0-0-0-0-0--3-3-3-3-3-3-3-3-5-5-5-5-5-5-5-5-| [chorus]
A-8-8-8-8-8-8-8-8--0-0-0-0-0-0-0-0--3-3-3-3-3-3-3-3-3-3-3-3-3-3-3-3-|
d-8-8-8-8-8-8-8-8--0-0-0-0-0-0-0-0--3-3-3-3-3-3-3-3-----------------|



verse 

chorus



Guitar 1

E--------------------------------------------------------------------------|
B-------------15b17--15--15b17--12--13--15-----------------------15b17--15-|
G-14--12--14--------------------------------14-------14--12--14------------|
D--------------------------------------------------------------------------|
A--------------------------------------------------------------------------|
d --------------------------------------------------------------------------|

E---------------------------|
B-15b17--12--13--15--15b17--|
G---------------------------|
D---------------------------|  [solo]
A---------------------------|
d---------------------------|



You can figure out the rest. Its just the chorus again and then the ending is the intro.
Suggest correction
comments
print report bad tab
guest
You may want to rate the tab now too:
select rating
Wanna post a correction for this tab? Suggest correction