Oops, an error
Loading. Please wait.
We have Chord Pro version of Sound Of Madness.
It's the closest thing you can get to the original song and it has interactive parts. Check out the tab »
×
5,540 views 1 this week
no commentswrite comment
1 2 3 4 5
2 more votes to show rating
add to favorites
×
Save as Personal and add changes to this tab that will be seen only by you. Learn more ›
×
You can save this tab as Personal to edit and correct it or add notes. All changes will be seen only by you. Learn more »
launch autoscroll
font size
0
reset
how to read this tab
guitar tuner
backing track
0:00
0:00
edit
Autoscroll
slow
fast
+/-
esc
set tempo
stop
INTRO

E-------------------------------------|
B-------------------------------------|
G-1-1-1-0-----------------------------|
D------------------3-0--3-0-0-0-0-0-0-|
A-------------------------------------|
D-------------------------------------|

E-------------------------------------|
B-------------------------------------|
G-1-1-1-0-----------------------------|
D------------------3-0--3-0-0-0-0-0-0-|
A-------------------------------------|
D-------------------------------------|

E-------------------------------------|
B-------------------------------------|
G-1-1-1-0-----------------------------|
D------------------3-0--3-0-0-0-0-0-0-|
A-------------------------------------|
D-------------------------------------|

E-------------------------------------|
B-------------------------------------|
G-1-1-1-0-----------------------------|
D------------------3-0--3-0-0-0-0-0-0-|
A-------------------------------------|
D-------------------------------------|

E-------------------------------------|
B-------------------------------------|
G-1-1-1-0-----------------------------|
D------------------3-0--3-0-0-0-0-0-0-|
A-------------------------------------|
D-------------------------------------|

VERSE 1

GUITAR 1
E-------------------------------------|
B-------------------------------------|
G-1-1-1-0-----------------------------|
D------------------3-0--3-0-0-0-0-0-0-|
A-------------------------------------|
D-------------------------------------|

GUITAR 2
E-------------------------------------|
B-------------------------------------|
G-------------------------------------|
D----6-6-6-5-3-0---3-0-0-0-0-3-0-0----|
A----6-6-6-5-3-0---3-0-0-0-0-3-0-0----|
D----6-6-6-5-3-0---3-0-0-0-0-3-0-0----|

GUITAR 1
E-------------------------------------|
B-------------------------------------|
G-1-1-1-0-----------------------------|
D------------------3-0--3-0-0-0-0-0-0-|
A-------------------------------------|
D-------------------------------------|

GUITAR 2
E-------------------------------------|
B-------------------------------------|
G-------------------------------------|
D-----6-6-6-5-3-0---3-0-0-0-0-3-0-0---|
A-----6-6-6-5-3-0---3-0-0-0-0-3-0-0---|
D-----6-6-6-5-3-0---3-0-0-0-0-3-0-0---|

GUITAR 1
E-------------------------------------|
B-------------------------------------|
G-1-1-1-0-----------------------------|
D------------------3-0--3-0-0-0-0-0-0-|
A-------------------------------------|
D-------------------------------------|

GUITAR 2
E-------------------------------------|
B-------------------------------------|
G-------------------------------------|
D----6-6-6-5-3-0---3-0-0-0-0-3-0-0----|
A----6-6-6-5-3-0---3-0-0-0-0-3-0-0----|
D----6-6-6-5-3-0---3-0-0-0-0-3-0-0----|

GUITAR 1
E-------------------------------------|
B-------------------------------------|
G-1-1-1-0-----------------------------|
D------------------3-0--3-0-0-0-0-0-0-|
A-------------------------------------|
D-------------------------------------|

GUITAR 2
E-------------------------------------|
B-------------------------------------|
G-------------------------------------|
D-----6-6-6-5-3-0---3-0-0-0-0-3-0-0---|
A-----6-6-6-5-3-0---3-0-0-0-0-3-0-0---|
D-----6-6-6-5-3-0---3-0-0-0-0-3-0-0---|

GUITAR 1
E-------------------------------------|
B-------------------------------------|
G-1-1-1-0-----------------------------|
D------------------3-0--3-0-0-0-0-0-0-|
A-------------------------------------|
D-------------------------------------|

GUITAR 2
E-------------------------------------|
B-------------------------------------|
G-------------------------------------|
D----6-6-6-5-3-0---3-0-0-0-0-3-0-0----|
A----6-6-6-5-3-0---3-0-0-0-0-3-0-0----|
D----6-6-6-5-3-0---3-0-0-0-0-3-0-0----|

GUITAR 1
E-------------------------------------|
B-------------------------------------|
G-1-1-1-0-----------------------------|
D------------------3-0--3-0-0-0-0-0-0-|
A-------------------------------------|
D-------------------------------------|

GUITAR 2
E-------------------------------------|
B-------------------------------------|
G-------------------------------------|
D----6-6-6-5-3-0---3-0-0-0-0-3-0-0----|
A----6-6-6-5-3-0---3-0-0-0-0-3-0-0----|
D----6-6-6-5-3-0---3-0-0-0-0-3-0-0----|

GUITAR 1
E-------------------------------------|
B-------------------------------------|
G-1-1-1-0-----------------------------|
D-------------3-0---------------------|
A-------------------------------------|
D-------------------------------------|

GUITAR 2
E-------------------------------------|
B-------------------------------------|
G-------------------------------------|
D-6-6-6-5-3-0-------------------------|
A-6-6-6-5-3-0-------------------------|
D-6-6-6-5-3-0-------------------------|

CHORUS 1

GUITAR 1

E-------------------------------------|
B-------------------------------------|
G-------------------------------------|
D-8-8-8-8--8-8--8-8--0-0-0-0-0-0-0-0--|
A-8-8-8-8-10-8-11-8--0-0-0-0-0-0-0-0--|
D-8-8-8-8--8-8--8-8--0-0-0-0-0-0-0-0--|

E-------------------------------------------|
B-------------------------------------------|
G-------------------------------------------|
D-3-3-3-3-3-3-3-3--10-10-10-10-10-10-10-10--|
A-3-3-3-3-3-3-3-3--10-10-10-10-12-10-13-10--|
D-3-3-3-3-3-3-3-3--10-10-10-10-10-10-10-10--|

GUITAR 2

E--------------------------------------------------|
B--------------------------------------------------|
G--15-15--14-14--12/10/12-12-12-12-12-12-12-12-12--|
D---X--X---X--X---X/-X/-X--X--X--X--X--X--X--X--X--|
A--13-13--12-12--10/-8/10-10-10-10-10-10-10-10-10--|
D--------------------------------------------------|

E----------------------------------------------------|
B----------------------------------------------------|
G--10-10-10-10-10-10-10-10--17-17-17-17-17-17-17-17--|
D---X--X--X--X--X--X--X--X---X--X--X--X--X--X--X--X--|
A---8--8--8--8--8--8--8--8--15-15-15-15-15-15-15-15--|
D----------------------------------------------------|

GUITAR 1

E-------------------------------------|
B-------------------------------------|
G-------------------------------------|
D-8-8-8-8--8-8--8-8--0-0-0-0-0-0-0-0--|
A-8-8-8-8-10-8-11-8--0-0-0-0-0-0-0-0--|
D-8-8-8-8--8-8--8-8--0-0-0-0-0-0-0-0--|

E-------------------------------------------|
B-------------------------------------------|
G-------------------------------------------|
D-3-3-3-3-3-3-3-3--10-10-10-10-10-10-10-10--|
A-3-3-3-3-3-3-3-3--10-10-10-10-12-10-13-10--|
D-3-3-3-3-3-3-3-3--10-10-10-10-10-10-10-10--|

E---------------------------|
B---------------------------|
G--5-5-5-5-5-5-5-5----------|
D--5-5-5-5-5-5-5-5----------|
A--3-3-3-3-3-3-3-3----------|
D---------------------------|

GUITAR 2

E--------------------------------------------------|
B--------------------------------------------------|
G--15-15--14-14--12/10/12-12-12-12-12-12-12-12-12--|
D---X--X---X--X---X/-X/-X--X--X--X--X--X--X--X--X--|
A--13-13--12-12--10/-8/10-10-10-10-10-10-10-10-10--|
D--------------------------------------------------|

E----------------------------------------------------|
B----------------------------------------------------|
G--10-10-10-10-10-10-10-10--17-17-17-17-17-17-17-17--|
D---X--X--X--X--X--X--X--X---X--X--X--X--X--X--X--X--|
A---8--8--8--8--8--8--8--8--15-15-15-15-15-15-15-15--|
D----------------------------------------------------|

E----------------------------|
B----------------------------|
G--11-11-11-11-11-11-11-11---|
D---X--X--X--X--X--X--X--X---|
A---9--9--9--9--9--9--9--9---|
D----------------------------|

VERSE 2

GUITAR 1
E-------------------------------------|
B-------------------------------------|
G-1-1-1-0-----------------------------|
D------------------3-0--3-0-0-0-0-0-0-|
A-------------------------------------|
D-------------------------------------|

GUITAR 2
E-------------------------------------|
B-------------------------------------|
G-------------------------------------|
D----6-6-6-5-3-0---3-0-0-0-0-3-0-0----|
A----6-6-6-5-3-0---3-0-0-0-0-3-0-0----|
D----6-6-6-5-3-0---3-0-0-0-0-3-0-0----|

GUITAR 1
E-------------------------------------|
B-------------------------------------|
G-1-1-1-0-----------------------------|
D------------------3-0--3-0-0-0-0-0-0-|
A-------------------------------------|
D-------------------------------------|

GUITAR 2
E-------------------------------------|
B-------------------------------------|
G-------------------------------------|
D----6-6-6-5-3-0---3-0-0-0-0-3-0-0----|
A----6-6-6-5-3-0---3-0-0-0-0-3-0-0----|
D----6-6-6-5-3-0---3-0-0-0-0-3-0-0----|

GUITAR 1
E-------------------------------------|
B-------------------------------------|
G-1-1-1-0-----------------------------|
D------------------3-0--3-0-0-0-0-0-0-|
A-------------------------------------|
D-------------------------------------|

GUITAR 2
E-------------------------------------|
B-------------------------------------|
G-------------------------------------|
D----6-6-6-5-3-0---3-0-0-0-0-3-0-0----|
A----6-6-6-5-3-0---3-0-0-0-0-3-0-0----|
D----6-6-6-5-3-0---3-0-0-0-0-3-0-0----|

GUITAR 1
E-------------------------------------|
B-------------------------------------|
G-1-1-1-0-----------------------------|
D------------------3-0--3-0-0-0-0-0-0-|
A-------------------------------------|
D-------------------------------------|

GUITAR 2
E-------------------------------------|
B-------------------------------------|
G-------------------------------------|
D----6-6-6-5-3-0---3-0-0-0-0-3-0-0----|
A----6-6-6-5-3-0---3-0-0-0-0-3-0-0----|
D----6-6-6-5-3-0---3-0-0-0-0-3-0-0----|

GUITAR 1
E-------------------------------------|
B-------------------------------------|
G-1-1-1-0-----------------------------|
D------------------3-0--3-0-0-0-0-0-0-|
A-------------------------------------|
D-------------------------------------|

GUITAR 2
E-------------------------------------|
B-------------------------------------|
G-------------------------------------|
D----6-6-6-5-3-0---3-0-0-0-0-3-0-0----|
A----6-6-6-5-3-0---3-0-0-0-0-3-0-0----|
D----6-6-6-5-3-0---3-0-0-0-0-3-0-0----|

GUITAR 1
E-------------------------------------|
B-------------------------------------|
G-1-1-1-0-----------------------------|
D------------------3-0--3-0-0-0-0-0-0-|
A-------------------------------------|
D-------------------------------------|

GUITAR 2
E-------------------------------------|
B-------------------------------------|
G-------------------------------------|
D----6-6-6-5-3-0---3-0-0-0-0-3-0-0----|
A----6-6-6-5-3-0---3-0-0-0-0-3-0-0----|
D----6-6-6-5-3-0---3-0-0-0-0-3-0-0----|

GUITAR 1
E-------------------------------------|
B-------------------------------------|
G-1-1-1-0-----------------------------|
D------------------3-0--3-0-0-0-0-0-0-|
A-------------------------------------|
D-------------------------------------|

GUITAR 2
E-------------------------------------|
B-------------------------------------|
G-------------------------------------|
D----6-6-6-5-3-0---3-0-0-0-0-3-0-0----|
A----6-6-6-5-3-0---3-0-0-0-0-3-0-0----|
D----6-6-6-5-3-0---3-0-0-0-0-3-0-0----|

CHORUS 2

GUITAR 1

E-------------------------------------|
B-------------------------------------|
G-------------------------------------|
D-8-8-8-8--8-8--8-8--0-0-0-0-0-0-0-0--|
A-8-8-8-8-10-8-11-8--0-0-0-0-0-0-0-0--|
D-8-8-8-8--8-8--8-8--0-0-0-0-0-0-0-0--|

E-------------------------------------------|
B-------------------------------------------|
G-------------------------------------------|
D-3-3-3-3-3-3-3-3--10-10-10-10-10-10-10-10--|
A-3-3-3-3-3-3-3-3--10-10-10-10-12-10-13-10--|
D-3-3-3-3-3-3-3-3--10-10-10-10-10-10-10-10--|

GUITAR 2

E--------------------------------------------------|
B--------------------------------------------------|
G--15-15--14-14--12/10/12-12-12-12-12-12-12-12-12--|
D---X--X---X--X---X/-X/-X--X--X--X--X--X--X--X--X--|
A--13-13--12-12--10/-8/10-10-10-10-10-10-10-10-10--|
D--------------------------------------------------|

E----------------------------------------------------|
B----------------------------------------------------|
G--10-10-10-10-10-10-10-10--17-17-17-17-17-17-17-17--|
D---X--X--X--X--X--X--X--X---X--X--X--X--X--X--X--X--|
A---8--8--8--8--8--8--8--8--15-15-15-15-15-15-15-15--|
D----------------------------------------------------|

GUITAR 1

E-------------------------------------|
B-------------------------------------|
G-------------------------------------|
D-8-8-8-8--8-8--8-8--0-0-0-0-0-0-0-0--|
A-8-8-8-8-10-8-11-8--0-0-0-0-0-0-0-0--|
D-8-8-8-8--8-8--8-8--0-0-0-0-0-0-0-0--|

E-------------------------------------------|
B-------------------------------------------|
G-------------------------------------------|
D-3-3-3-3-3-3-3-3--10-10-10-10-10-10-10-10--|
A-3-3-3-3-3-3-3-3--10-10-10-10-12-10-13-10--|
D-3-3-3-3-3-3-3-3--10-10-10-10-10-10-10-10--|

E---------------------------|
B---------------------------|
G--5-5-5-5-5-5-5-5----------|
D--5-5-5-5-5-5-5-5----------|
A--3-3-3-3-3-3-3-3----------|
D---------------------------|

GUITAR 2

E--------------------------------------------------|
B--------------------------------------------------|
G--15-15--14-14--12/10/12-12-12-12-12-12-12-12-12--|
D---X--X---X--X---X/-X/-X--X--X--X--X--X--X--X--X--|
A--13-13--12-12--10/-8/10-10-10-10-10-10-10-10-10--|
D--------------------------------------------------|

E----------------------------------------------------|
B----------------------------------------------------|
G--10-10-10-10-10-10-10-10--17-17-17-17-17-17-17-17--|
D---X--X--X--X--X--X--X--X---X--X--X--X--X--X--X--X--|
A---8--8--8--8--8--8--8--8--15-15-15-15-15-15-15-15--|
D----------------------------------------------------|

E----------------------------|
B----------------------------|
G--11-11-11-11-11-11-11-11---|
D---X--X--X--X--X--X--X--X---|
A---9--9--9--9--9--9--9--9---|
D----------------------------|

SOLO

GUITAR 1

E---------------------------------------------|
B---------------17--15--17---12--13---15------|
G--14--12--14-----------------------------14--|
D---------------------------------------------|
A---------------------------------------------|
D---------------------------------------------|

E-----------------------------------------------------------|
B-----------------------------------------------------------|
G--14-14-14-14-14-14--12-12-12-12-12-12--14-14-14-14-14-14--|
D-----------------------------------------------------------|
A-----------------------------------------------------------|
D-----------------------------------------------------------|

E-----------------------------------------------------------|
B--17-17-17-17-17-17--15-15-15-15-15-15--17-17-17-17-17-17--|
G-----------------------------------------------------------|
D-----------------------------------------------------------|
A-----------------------------------------------------------|
D-----------------------------------------------------------|

E-----------------------------------------------------------|
B--12-12-12-12-12-12--13-13-13-13-13-13--15-15-15-15-15-15--|
G-----------------------------------------------------------|
D-----------------------------------------------------------|
A-----------------------------------------------------------|
D-----------------------------------------------------------|

E-----------------------------------------------------------|
B-----------------------------------------------------------|
G--15-15-15-15-15-15-15-15-15-15-15-15--------15~~~---------|
D-----------------------------------------------------------|
A-----------------------------------------------------------|
D-----------------------------------------------------------|

GUITAR 2

E---------------------------------------------|
B---------------17--15--17---12--13---15------|
G--14--12--14-----------------------------14--|
D---------------------------------------------|
A---------------------------------------------|
D---------------------------------------------|

E---------------------------------------------|
B---------------17--15--17---12--13---15------|
G--14--12--14-----------------------------14~-|
D---------------------------------------------|
A---------------------------------------------|
D---------------------------------------------|

BREAK

(wait about 20 seconds)

CHORUS 3

GUITAR 1

E-------------------------------------|
B-------------------------------------|
G-------------------------------------|
D-8-8-8-8--8-8--8-8--0-0-0-0-0-0-0-0--|
A-8-8-8-8-10-8-11-8--0-0-0-0-0-0-0-0--|
D-8-8-8-8--8-8--8-8--0-0-0-0-0-0-0-0--|

E-------------------------------------------|
B-------------------------------------------|
G-------------------------------------------|
D-3-3-3-3-3-3-3-3--10-10-10-10-10-10-10-10--|
A-3-3-3-3-3-3-3-3--10-10-10-10-12-10-13-10--|
D-3-3-3-3-3-3-3-3--10-10-10-10-10-10-10-10--|

GUITAR 2

E--------------------------------------------------|
B--------------------------------------------------|
G--15-15--14-14--12/10/12-12-12-12-12-12-12-12-12--|
D---X--X---X--X---X/-X/-X--X--X--X--X--X--X--X--X--|
A--13-13--12-12--10/-8/10-10-10-10-10-10-10-10-10--|
D--------------------------------------------------|

E----------------------------------------------------|
B----------------------------------------------------|
G--10-10-10-10-10-10-10-10--17-17-17-17-17-17-17-17--|
D---X--X--X--X--X--X--X--X---X--X--X--X--X--X--X--X--|
A---8--8--8--8--8--8--8--8--15-15-15-15-15-15-15-15--|
D----------------------------------------------------|

GUITAR 1

E-------------------------------------|
B-------------------------------------|
G-------------------------------------|
D-8-8-8-8--8-8--8-8--0-0-0-0-0-0-0-0--|
A-8-8-8-8-10-8-11-8--0-0-0-0-0-0-0-0--|
D-8-8-8-8--8-8--8-8--0-0-0-0-0-0-0-0--|

E-------------------------------------------|
B-------------------------------------------|
G-------------------------------------------|
D-3-3-3-3-3-3-3-3--10-10-10-10-10-10-10-10--|
A-3-3-3-3-3-3-3-3--10-10-10-10-12-10-13-10--|
D-3-3-3-3-3-3-3-3--10-10-10-10-10-10-10-10--|

E---------------------------|
B---------------------------|
G--5-5-5-5-5-5-5-5----------|
D--5-5-5-5-5-5-5-5----------|
A--3-3-3-3-3-3-3-3----------|
D---------------------------|

GUITAR 2

E--------------------------------------------------|
B--------------------------------------------------|
G--15-15--14-14--12/10/12-12-12-12-12-12-12-12-12--|
D---X--X---X--X---X/-X/-X--X--X--X--X--X--X--X--X--|
A--13-13--12-12--10/-8/10-10-10-10-10-10-10-10-10--|
D--------------------------------------------------|

E----------------------------------------------------|
B----------------------------------------------------|
G--10-10-10-10-10-10-10-10--17-17-17-17-17-17-17-17--|
D---X--X--X--X--X--X--X--X---X--X--X--X--X--X--X--X--|
A---8--8--8--8--8--8--8--8--15-15-15-15-15-15-15-15--|
D----------------------------------------------------|

E----------------------------|
B----------------------------|
G--11-11-11-11-11-11-11-11---|
D---X--X--X--X--X--X--X--X---|
A---9--9--9--9--9--9--9--9---|
D----------------------------|

OUTRO 1

GUITAR 1

E--------------------------------------------------------------------------|
B--------------------------------------------------------------------------|
G--15-15-15-15-14-14-14-14-12-12-12-12-10-10-10-10-14-14-14-14-10-10-10-10-|
D---X--X--X--X--X--X--X--X--X--X--X--X--X--X--X--X--X--X--X--X--X--X--X--X-|
A--13-13-13-13-12-12-12-12-10-10-10-10--8--8--8--8-12-12-12-12--8--8--8--8-|
D--------------------------------------------------------------------------|

E-------------------------------------|
B-------------------------------------|
G--17-17-17-17-17-17-17-17------------|
D---X--X--X--X--X--X--X--X------------|
A--15-15-15-15-15-15-15-15------------|
D-------------------------------------|

GUITAR 2

E-------------------------------------------------------------------|
B-------------------------------------------------------------------|
G--------------------------------------------------5-5-5-5-5-5-5-5--|
D--8-8-8-8-8-8-8-8-0-0-0-0-0-0-0-0-3-3-3-3-3-3-3-3-5-5-5-5-5-5-5-5--|
A--8-8-8-8-8-8-8-8-0-0-0-0-0-0-0-0-3-3-3-3-3-3-3-3-3-3-3-3-3-3-3-3--|
D--8-8-8-8-8-8-8-8-0-0-0-0-0-0-0-0-3-3-3-3-3-3-3-3------------------|

OUTRO 2

GUITAR 1

E--------------------------------------------------------------------------|
B--------------------------------------------------------------------------|
G--15-15-15-15-14-14-14-14-12-12-12-12-10-10-10-10-14-14-14-14-10-10-10-10-|
D---X--X--X--X--X--X--X--X--X--X--X--X--X--X--X--X--X--X--X--X--X--X--X--X-|
A--13-13-13-13-12-12-12-12-10-10-10-10--8--8--8--8-12-12-12-12--8--8--8--8-|
D--------------------------------------------------------------------------|

E----------------------------|
B----------------------------|
G--11-11-11-11-11-11-11-11---|
D---X--X--X--X--X--X--X--X---|
A---9--9--9--9--9--9--9--9---|
D----------------------------|

GUITAR 2

E-------------------------------------------------------------------|
B-------------------------------------------------------------------|
G--------------------------------------------------5-5-5-5-5-5-5-5--|
D--8-8-8-8-8-8-8-8-0-0-0-0-0-0-0-0-3-3-3-3-3-3-3-3-5-5-5-5-5-5-5-5--|
A--8-8-8-8-8-8-8-8-0-0-0-0-0-0-0-0-3-3-3-3-3-3-3-3-3-3-3-3-3-3-3-3--|
D--8-8-8-8-8-8-8-8-0-0-0-0-0-0-0-0-3-3-3-3-3-3-3-3------------------|

OUTRO 3

GUITAR 1
E-------------------------------------|
B-------------------------------------|
G-1-1-1-0-----------------------------|
D------------------3-0--3-0-0-0-0-0-0-|
A-------------------------------------|
D-------------------------------------|

GUITAR 2
E-------------------------------------|
B-------------------------------------|
G-------------------------------------|
D----6-6-6-5-3-0---3-0-0-0-0-3-0-0----|
A----6-6-6-5-3-0---3-0-0-0-0-3-0-0----|
D----6-6-6-5-3-0---3-0-0-0-0-3-0-0----|

GUITAR 1
E-------------------------------------|
B-------------------------------------|
G-1-1-1-0-----------------------------|
D------------------3-0--3-0-0-0-0-0-0-|
A-------------------------------------|
D-------------------------------------|

GUITAR 2
E-------------------------------------|
B-------------------------------------|
G-------------------------------------|
D----6-6-6-5-3-0---3-0-0-0-0-3-0-0----|
A----6-6-6-5-3-0---3-0-0-0-0-3-0-0----|
D----6-6-6-5-3-0---3-0-0-0-0-3-0-0----|

GUITAR 1
E-------------------------------------|
B-------------------------------------|
G-1-1-1-0-----------------------------|
D------------------3-0--3-0-0-0-0-0-0-|
A-------------------------------------|
D-------------------------------------|

GUITAR 2
E-------------------------------------|
B-------------------------------------|
G-------------------------------------|
D----6-6-6-5-3-0---3-0-0-0-0-3-0-0----|
A----6-6-6-5-3-0---3-0-0-0-0-3-0-0----|
D----6-6-6-5-3-0---3-0-0-0-0-3-0-0----|


And that is it, The Sound of Madness by Shinedown. Should sound good. Have fun! Umm... BYE!!!!

            
            
Suggest correction
Creating personal tab
Creating personal tab
You can edit any tab online and save it as your Personal.

You can edit, replace or remove any tab part or add personal notes – all changes will be seen only by you.

Personal tabs can be accessed anytime from any device, even offline.
Learn more »
Give kudos to tab author, rate the tab!
1 2 3 4 5
comments
print report bad tab
guest
Wanna post a correction for this tab? Suggest correction