Oops, an error
Loading. Please wait.
We have Chord Pro version of Sound Of Madness.
It's the closest thing you can get to the original song and it has interactive parts. Check out the tab »
×

Sound Of Madness bass

64 views 12 this week
no commentswrite comment
1 2 3 4 5
3 more votes to show rating
add to favorites
×
Save as Personal and add changes to this tab that will be seen only by you. Learn more ›
×
You can save this tab as Personal to edit and correct it or add notes. All changes will be seen only by you. Learn more »
launch autoscroll
font size
0
reset
guitar tuner
backing track
0:00
0:00
edit
Autoscroll
slow
fast
+/-
esc
set tempo
stop
About this tab version
Finger style tab with fingering tips. Was this info helpful? Yes No
[Intro]
G|---------------------|------------------------------|
D|-/6--6--6-5----------|------------------------------|
A|------------8-5-8--5-|----5-----5-----5-----5-----5-|
D|---------------------|-0-----0-----0-----0-----0----|

G|---------------------|------------------|------------------------|
D|-/6--6--6-5----------|------------------|------------------------|
A|------------8-5-8--5-|----5-----5-----5-|------------------------|
D|---------------------|-0-----0-----0----|-6--6--6--6--5--5--3--0-|

[Verse]
G|-------------------------|    |------------------------|
D|-------------------------|    |------------------------|
A|-8--5-----5----3---------|    |------------------------|
D|-------0-----3---3--2--0-| x3 |-6--6--6--6--5--5--3--0-|

G|-------------------------|     |-------------------------|
D|-------------------------|     |-----pause one measure---|
A|-8--5-----5----3---------|     |-------------------------|
D|-------0-----3---3--2--0-| x3  |-------------------------|

[Chorus]
G|------------------------|------------------------|------------------------|---------------------------|
D|------------------------|------------------------|------------------------|------------------3--------|
A|-1--1--1--1--1--1--1--1-|------------------------|------------------------|-3--3--3--3-0-3-5----5-3-0-|
D|------------------------|-0--0--0--0--0--0--0--0-|-3--3--3--3--3--3--3--3-|---------------------------|

G|------------------------|------------------------|------------------------|------------------------|
D|------------------------|------------------------|------------------------|------------------------|
A|-1--1--1--1--1--1--1--1-|------------------------|------------------------|-3--3--3--3--3--3--3--3-|
D|------------------------|-0--0--0--0--0--0--0--0-|-3--3--3--3--3--3--3--3-|------------------------|

G|---------------------------------|------------------------------|
D|-/6--6--6--6--6--6--6-5----------|------------------------------|
A|------------------------8-5-8--5-|----5-----5-----5-----5-----5-|
D|---------------------------------|-0-----0-----0-----0-----0----|

G|---------------------|------------------|------------------------|
D|-/6--6--6-5----------|------------------|------------------------|
A|------------8-5-8--5-|----5-----5-----5-|------------------------|
D|---------------------|-0-----0-----0----|-6--6--6--6--5--5--3--0-|

[Verse 2]
G|-------------------------|    |------------------------| 
D|-------------------------|    |------------------------|     
A|-8--5-----5----3---------|    |------------------------|     
D|-------0-----3---3--2--0-| x3 |-6--6--6--6--5--5--3--0-|     

G|-------------------------|     |---------------------|
D|-------------------------|     |-/6--6--6-5----------|
A|-8--5-----5----3---------|     |------------8-5-8--5-|
D|-------0-----3---3--2--0-| x3  |---------------------|

[Chorus 2]
G|------------------------|------------------------|------------------------|---------------------------|
D|------------------------|------------------------|------------------------|------------------3--------|
A|-1--1--1--1--1--1--1--1-|------------------------|------------------------|-3--3--3--3-0-3-5----5-3-0-|
D|------------------------|-0--0--0--0--0--0--0--0-|-3--3--3--3--3--3--3--3-|---------------------------|

G|------------------------|------------------------|------------------------|------------------------|
D|------------------------|------------------------|------------------------|------------------------|
A|-1--1--1--1--1--1--1--1-|------------------------|------------------------|-3--3--3--3--3--3--3--3-|
D|------------------------|-0--0--0--0--0--0--0--0-|-3--3--3--3--3--3--3--3-|------------------------|

G|---------------------------------|
D|-/6--6--6--6--6--6--6-5----------|
A|------------------------8-5-8--5-|
D|---------------------------------|

[Solo]
G|---------------------------|-----------------------------------|
D|---------------------------|-7-5-------------------------------|
A|-0-0-0-0-0-0-0-0-0-0-0-----|-----7-5-3-3-3-3-3-3-3-3-3-3-3-----|
D|---------------------------|-----------------------------------|

G|-----------------------------------|-----------------------------------------|
D|-7-5-------------------------------|-7-5-------------------------------------|
A|-----7-5---------------------------|-----7-5-------------------------3-3-2-2-|
D|---------5-5-5-5-5-5-5-5-5-5-5-----|---------0-0-0-0-0-0-0-0-0-0-0-0---------|


G|---------------------------|-----------------------------------|
D|---------------------------|-7-5-------------------------------|
A|-0-0-0-0-0-0-0-0-0-0-0-----|-----7-5-3-3-3-3-3-3-3-3-3-3-3-----|
D|---------------------------|-----------------------------------|

G|-----------------------------------------|----------------------------------|
D|-7-5-------------------------------------|--------------/6--6--6-5----------|
A|-----7-5---------------------------------|-1--1--1--1--------------8-5-8--5-|
D|---------5-5-5-5-5-5-5-5-5-5-5-5-5-3-5-3-|----------------------------------|

[Bridge]
G|-----------------------------------|-----------------------------------|-----------------------------------|
D|-----------------------------------|-----------------------------------|-----------------------------------|
A|-1---------------------------------|-----------------------------------|-----------------------------------|
D|-----------------------------------|-0---------------------------------|-3---------------------------------|

G|-----------------------------------|-----------------------------------|
D|-5---------------------------------|-3---------------------------------|
A|-3---------------------------------|-1---------------------------------|
D|-----------------------------------|-----------------------------------|

G|-----------------------------------|-----------------------------------|
D|-----------------------------------|-----------------------------------|
A|-----------------------------------|-----------------------------------|
D|-0---------------------------------|-3---------------------------------|

G|------------------------|------------------------|---------------------------------|
D|------------------------|------------------------|-/6--6--6--6--6--6--6-5----------|
A|-3--3--3--3--3--3--3--3-|-3--3--3--3--3--3--3--3-|------------------------8-5-8--5-|
D|------------------------|------------------------|---------------------------------|

[Last Chorus]
G|------------------------|------------------------|------------------------|---------------------------|
D|------------------------|------------------------|------------------------|------------------3--------|
A|-1--1--1--1--1--1--1--1-|------------------------|------------------------|-3--3--3--3-0-3-5----5-3-0-|
D|------------------------|-0--0--0--0--0--0--0--0-|-3--3--3--3--3--3--3--3-|---------------------------|

G|------------------------|------------------------|------------------------|------------------------------|
D|------------------------|------------------------|------------------------|----------------5-3-----------|
A|-1--1--1--1--1--1--1--1-|------------------------|------------------------|-3--3--3--3-0-3-----5-3-0-----|
D|------------------------|-0--0--0--0--0--0--0--0-|-3--3--3--3--3--3--3--3-|--------------------------5-3-|

G|----------------------------|-----------------------|-----------------------|------------------------------|
D|--------------------------3-|-----------------------|-----------------------|------------------5-3---------|
A|-1--1--1--1--1--1--1--1/3---|-----------------------|-----------------------|-3--3--3--3-0-3-5-----5-3-----|
D|----------------------------|0--0--0--0--0--0--0--0-|-3--3--3--3--3--3--3--3|--------------------------5-3-|
                                                                               ^ start with middle finger here

G|----------------------------|------------------------|------------------------|       
D|--------------------------3-|------------------------|------------------------|
A|-1--1--1--1--1--1--1--1/3---|------------------------|------------------------|
D|----------------------------|-0--0--0--0--0--0--0--0-|-3--3--3--3--3--3--3--3-|

[Outro]
G|---------------------------------|------------------------------|
D|-/6--6--6--6--6--6--6-5----------|------------------------------|
A|------------------------8-5-8--5-|----5-----5-----5-----5-----5-|
D|---------------------------------|-0-----0-----0-----0-----0----|

G|---------------------|------------------------------|
D|-/6--6--6-5----------|------------------------------|
A|------------8-5-8--5-|----5-----5-----5-----5-----5-|
D|---------------------|-0-----0-----0-----0-----0----|

G|---------------------|---------------------|-----|
D|-/6--6--6-5----------|-/6--6--6-5----------|-----|
A|------------8-5-8--5-|------------8-5-8--5-|-8---|
D|---------------------|---------------------|---0-|



************************************

| /  Slide up
 

************************************
Suggest correction
Creating personal tab
Creating personal tab
You can edit any tab online and save it as your Personal.

You can edit, replace or remove any tab part or add personal notes – all changes will be seen only by you.

Personal tabs can be accessed anytime from any device, even offline.
Learn more »
Give kudos to tab author, rate the tab!
1 2 3 4 5
comments
print report bad tab
guest
You may want to rate the tab now too:
select rating
Wanna post a correction for this tab? Suggest correction