Oops, an error
Loading. Please wait.

State Of My Head Tab

142 views 15 this week
no commentswrite comment
1 2 3 4 5
3 more votes to show rating
add to favorites
launch autoscroll
font size
0
reset
how to read this tab
guitar tuner
Autoscroll
slow
fast
+/-
esc
set tempo
stop
Help us to improve Ultimate-Guitar.com Take our survey!
×
Author
Difficulty
[Intro] 

Version from their Smith & Myers tour :)

e|-------------|
B|-------------|
G|-------------|(x2)
D|-8---3--5----|
A|-10--5--6----|
E|-------------|


[Verse 1] 

Not so sure about the rhythm of this part 

e|--------------------------------------------------|
B|--------------------------------------------------|
G|--------------------------------------------------|
D|-5-------3------5-------8-------------------------|(x4)
A|-5-------3------5-------8-------------------------|
E|-3-(x10)-1-(x4)-3-(x10)-6-(x4)--------------------|

e|--------------|
B|--------------|
G|--------------|
D|-8---3--5-----|
A|-10--5--6-----|
E|--------------|


[Chorus] 

Strum fast

e|-----------------------------------------|
B|-----------------------------------------|
G|-----------------------------------------|
D|-5------8------3------10-----------------|(x4)
A|-5------8------3------10-----------------|
E|-3-(x6)-6-(x6)-1-(x6)-8-(x6)-------------|


e|-------------|
B|-------------|
G|-------------|
D|-8---3--5----|
A|-10--5--6----|
E|-------------|


[Bridge]

e|--------------------------------------------|
B|--------------------------------------------|
G|-8---5-------------8---5-----7--------------|
D|-8---5--5--8-------8---5--5--7--------------|
A|-6~--3~-5--8-------6~--3~-5--5-(x8)---------|
E|--------3~-6~-(x2)--------3~----------------|


Repeat Chorus twice, but end on:

e|----|
B|----|
G|----|
D|-3--|
A|-3--|
E|-1--|


************************************

| ~  Vibrato

************************************
Suggest correction
Give kudos to tab author, rate the tab!
1 2 3 4 5
comments
print report bad tab
guest
You may want to rate the tab now too:
select rating
Wanna post a correction for this tab? Suggest correction