Oops, an error
Loading. Please wait.

Stranger Inside tab

version 2
version 2

Whole song

600 views 1 this week
no commentswrite comment
1 2 3 4 5
x 4
add to favorites
×
Save as Personal and add changes to this tab that will be seen only by you. Learn more ›
×
You can save this tab as Personal to edit and correct it or add notes. All changes will be seen only by you. Learn more »
launch autoscroll
font size
0
reset
how to read this tab
guitar tuner
edit
Autoscroll
slow
fast
+/-
esc
set tempo
stop
http://youtu.be/12rhVITGN9A

MAJOR CORRECTIONS AND NEW PARTS ADDED 11-9-13

MAKE SURE TO READ THE NOTE BEFORE STARTING TAB

NOTE: This tab is extremely weird because the guitar coming out of the right
speaker/headphone is playing something different than the left side a lot of times. I 
know it
sounds weird if you only play the right guitar's part, but if you record both sides and 
play them at the same time it is 100% correct.. I already tried it by playing with a 
friend at
the same time.

Intro:
Right Guitar 2(fade in)
D|--------------------------------------------------------------------|
A|--------------------------------------------------------------------|
F|--------------------------------------------------------------------|
C|--------------------------------------------------------------------|
G|-5-55-5-55-5-55-5-55-5-55-5-55-5-55-5-55-5-55-5-55-5-55-5-55-5-55-5-|
C|--------------------------------------------------------------------|

Main Riff:
Right Guitar 1 & Left Guitar 1
D|-----------------------------------------------|
A|-----------------------------------------------|
F|-----------------------------------------------|
C|-----------------------------------------------|
G|-0-3p0-5/7--0-3p0-7/8--0-3p0-5/7-3h5-5-5-5-3---|
C|-0-3p0-5/7--0-3p0-7/8--0-3p0-5/7-------------5-|

D|-----------------------------------------------|
A|-----------------------------------------------|
F|-----------------------------------------------|
C|-----------------------------------------------|
G|-0-3p0-5/7--0-3p0-7/8--0-3p0-5/7-3h5-5-5-5-3---|
C|-0-3p0-5/7--0-3p0-7/8--0-3p0-5/7-------------3-|

Verse:
Right Guitar 2(2x)
D|----------------|
A|----------------|
F|----------------|
C|---7--8--5--8---|
G|---5--5--5--5---|
C|----------------|

Left Guitar 2
D|----------17~~~-------------------15~~~--------------------------------------------------------|
A|-15-15-15------15----15--15-15-15------15----15--15-15-15-17~~~15----15--18-15-----17-15----15-|
F|------------------17----------------------17----------------------17-----------17--------17----|
C|-----------------------------------------------------------------------------------------------|
G|-----------------------------------------------------------------------------------------------|
C|-----------------------------------------------------------------------------------------------|

Prechorus:
Right Guitar 1
D|-----------------------------------------------------------------------------|
A|-----------------------------------------------------------------------------|
F|-7777-7777-7777--7777-7777-7777--7777-7777-7777----------------------9-9-12--|
C|-------------------------------------------------1-1-1-1--1-1-1-1--1---------|
G|-5555-5555-5555--5555-5555-5555--5555-5555-5555--1-1-1-1--1-1-1-1--1-7-7-10--|
C|-------------------------------------------------1-1-1-1--1-1-1-1--1---------|

D|-----------------------------------------------------------------------------|
A|-----------------------------------------------------------------------------|
F|-7777-7777-7777--7777-7777-7777--7777-7777-7777---------------9--9--9--12\\7-|
C|-------------------------------------------------1-1-1-1--1-1----------------|
G|-5555-5555-5555--5555-5555-5555--5555-5555-5555--1-1-1-1--1-1-7--7--7--10\\5-|
C|-------------------------------------------------1-1-1-1--1-1----------------|

Left Guitar 1
D|-----------------------------------------------------------------------------|
A|-----------------------------------------------------------------------------|
F|-7777-7777-7777--------------------------------------------------------------|
C|-----------------8888-8888-8888--5555-5555-5555--1-1-1-1--1-1-1-1--1-3-3-5-5-|
G|-5555-5555-5555----------------------------------1-1-1-1--1-1-1-1--1-3-3-5-5-|
C|-----------------8888-8888-8888--5555-5555-5555--1-1-1-1--1-1-1-1--1-3-3-5-5-|

D|-----------------------------------------------------------------------------|
A|-----------------------------------------------------------------------------|
F|-7777-7777-7777--------------------------------------------------------------|
C|-----------------8888-8888-8888--5555-5555-5555--1-1-1-1--1-1-1-1--1-3-3-5-5-|
G|-5555-5555-5555----------------------------------1-1-1-1--1-1-1-1--1-3-3-5-5-|
C|-----------------8888-8888-8888--5555-5555-5555--1-1-1-1--1-1-1-1--1-3-3-5-5-|

Chorus:
Right Guitar 1 & Left Guitar 1(2x)
D|-------------------------------------------------------------------|
A|-------------------------------------------------------------------|
F|-7-7-7-7-7-7-7-7---------------------------------------------------|
C|-7-7-7-7-7-7-7-7-8-8-8-8-8-8-8-8-5-5-5-5-5-5-5-5-8-8-8-8-5-5-5-5-5-|
G|-5-5-5-5-5-5-5-5-8-8-8-8-8-8-8-8-5-5-5-5-5-5-5-5-8-8-8-8-5-5-5-5-5-|
C|-----------------8-8-8-8-8-8-8-8-5-5-5-5-5-5-5-5-8-8-8-8-5-5-5-5-5-|

Repeat Riff

Verse:
Right Guitar 2(2x)
D|----------------|
A|----------------|
F|----------------|
C|---7--8--5--8---|
G|---5--5--5--5---|
C|----------------|

Left Guitar 2(2x)
D|----------17~~~-------------------15~~~--------------------------------------------------------|
A|-15-15-15------15----15--15-15-15------15----15--15-15-15-17~~~15----15--18-15-----17-15----15-|
F|------------------17----------------------17----------------------17-----------17--------17----|
C|-----------------------------------------------------------------------------------------------|
G|-----------------------------------------------------------------------------------------------|
C|-----------------------------------------------------------------------------------------------|

Repeat Pre-Chorus
Repeat Chorus

Bridge:
Center Guitar(Tremolo picking)
D|-------------------------------------|
A|-------------------------------------|
F|-7------9------10------12-----15-----|
C|-------------------------------------|
G|-------------------------------------|
C|-------------------------------------|

Right Guitar 1 & Left Guitar 1
D|---------------------------------------------------|
A|---------------------------------------------------|
F|---------------------------------------------------|
C|------------------------------------------------3~-|
G|-------------------0-8----------------------3h5----|
C|-0-0-0-0--0-0-0-0--0-8--0-0-0-0--0-0-0-0--0--------|

D|----------------------------------------------------|
A|----------------------------------------------------|
F|----------------------------------------------------|
C|------------------------------------------------3h5-|
G|-------------------0-8----------------------3h5-----|
C|-0-0-0-0--0-0-0-0--0-8--0-0-0-0--0-0-0-0--0---------|

Breakdown:
D|---------------------------------------------------------------------|
A|---------------------------------------------------------------------|
F|---------------------------------------------------------------------|
C|---------------------------------------------------------------------|
G|------------------------------10-------------------------------10h12-|
C|-0-0-0-0--12-12-0-12--0-10h12-----0-0-0-0--12-12-0-12--0-10h12-------|

D|---------------------------------------------------------------------|
A|---------------------------------------------------------------------|
F|---------------------------------------------------------------------|
C|---------------------------------------------------------------------|
G|------------------------------10-------------------------------10h12-|
C|-0-0-0-0--12-12-0-12--0-10h12-----0-0-0-0--12-12-0-12--0-10h12-------|

Last Chorus:
Right Guitar 1 & Left Guitar 1(2x)
D|-------------------------------------------------------------------|
A|-------------------------------------------------------------------|
F|-7-7-7-7-7-7-7-7---------------------------------------------------|
C|-7-7-7-7-7-7-7-7-8-8-8-8-8-8-8-8-5-5-5-5-5-5-5-5-8-8-8-8-5-5-5-5-5-|
G|-5-5-5-5-5-5-5-5-8-8-8-8-8-8-8-8-5-5-5-5-5-5-5-5-8-8-8-8-5-5-5-5-5-|
C|-----------------8-8-8-8-8-8-8-8-5-5-5-5-5-5-5-5-8-8-8-8-5-5-5-5-5-|


2ND PART OF LAST CHORUS
Right Guitar 1(2x)
D|-------------------------------------------------------------------|
A|-------------------------------------------------------------------|
F|-7-7-7-7-7-7-7-7---------------------------------------------------|
C|-7-7-7-7-7-7-7-7-8-8-8-8-8-8-8-8-5-5-5-5-5-5-5-5-8-8-8-8-5-5-5-5-5-|
G|-5-5-5-5-5-5-5-5-8-8-8-8-8-8-8-8-5-5-5-5-5-5-5-5-8-8-8-8-5-5-5-5-5-|
C|-----------------8-8-8-8-8-8-8-8-5-5-5-5-5-5-5-5-8-8-8-8-5-5-5-5-5-|

Left Guitar 1(2x)(Tremolo picking)
D|-10------12------13------15-----18-----|
A|---------------------------------------|
F|---------------------------------------|
C|---------------------------------------|
G|---------------------------------------|
C|---------------------------------------|

Repeat Riff
Suggest correction
Creating personal tab
Creating personal tab
You can edit any tab online and save it as your Personal.

You can edit, replace or remove any tab part or add personal notes – all changes will be seen only by you.

Personal tabs can be accessed anytime from any device, even offline.
Learn more »
comments
print report bad tab
guest
You may want to rate the tab now too:
select rating
Wanna post a correction for this tab? Suggest correction