Oops, an error
Loading. Please wait.

The Energy Bass Tab

25 views 1 this week
no commentswrite comment
1 2 3 4 5
3 more votes to show rating
add to favorites
launch autoscroll
font size
0
reset
guitar tuner
Autoscroll
slow
fast
+/-
esc
set tempo
stop
Help us to improve Ultimate-Guitar.com Take our survey!
×
Tuning:D,A,D,G
  Intro 4 times

G|---------------------------------------------------------------------|
D|----3-----3------3---------------------------------------------------|
A|---------------------------------------------------------------------|
D|---5-----5-----5------333333-----------------------------------------|

Verse and Interlude
G|---------------------------------------------------------------------------|
D|---------------------------------------------------------------------------|
A|---------------------------------------------------------------------------|
D|--5--8--5--3--5--3--8-8-8-10-8-10-8----------------------------------------|

  Both guitars: intro to chorus
G|---------------------------------------------------------------------------|
D|---------------------------------------------------------------------------|
A|----------------1---1-1-----3-3-3------------------------------------------|
D|----5--5-5-5-5--5-5--------------------------------------------------------|

  Chorus twice
G|---------------------------------------------------------------------------|
D|---------------------------------------------------------------------------|
A|------3-3-------3-3---3------/6-6-6--1-1---8--8---------8--8---8--8--8--8--|
D|-3-3-------5-5------5------------------------------------------------------|

outro
G|---------------------------------------------------------------------------|
D|---------------------------------------------------------------------------|
A|---1-1-1-1-1-1-1/---3-3-3-3------4--4---3---1---3--------------------------|
D|---------------------------------------------------------------------------|


G|---------------------------------------------------------------------------|
D|--5-5---5-7-7---7-8-8--8-8-8\----------------------------------------------|
A|---------------------------------------------------------------------------|
D|---------------------------------------------------------------------------|
   
Suggest correction
Give kudos to tab author, rate the tab!
1 2 3 4 5
comments
print report bad tab
guest
You may want to rate the tab now too:
select rating
Wanna post a correction for this tab? Suggest correction