Oops, an error
Loading. Please wait.

Unity tab

version 3
version 3

Whole song

Interactive

707 views 3 this week
no commentswrite comment
1 2 3 4 5
2 more votes to show rating
add to favorites
×
Save as Personal and add changes to this tab that will be seen only by you. Learn more ›
×
You can save this tab as Personal to edit and correct it or add notes. All changes will be seen only by you. Learn more »
launch autoscroll
font size
0
reset
how to read this tab
guitar tuner
edit
Autoscroll
slow
fast
+/-
esc
set tempo
stop
Hey what's up this is my tab for Unity.. and I saw there were some other tabs, but they
weren't completely correct on some things and made the song harder than it really is
especially in the solo. So I made one and made it a little easier for beginner 
guitarists while producing the same sound. Email me with questions or suggestions or comment 
them. :)
alschneideryo@gmail.com

If I was doing a cover video with multiple guitars this is the volume I would use for
each guitar:
Guitar 1 Volume: 100%
Guitar 2 Volume: 100%
Guitar 3 Volume: 60%
Guitar 4 Volume: 40%

Intro:
Guitar 3(This fades in during the keyboard part. You can't really hear the first row
because it hasn't really faded in yet, but I assume its playing very quietly)
E|--------3~~---------3~~|
B|--1--1-----1--1--1-----|
G|-----------------------|
D|-----------------------|
A|-----------------------|
D|-----------------------|

E|--------3~~---------3~~|
B|--1--1-----1--1--1-----|
G|-----------------------|
D|-----------------------|
A|-----------------------|
D|-----------------------|

E|--------3~~---------3~~|
B|--1--1-----1--1--1-----|
G|-----------------------|
D|-----------------------|
A|-----------------------|
D|-----------------------|

E|--------3~~---------3~~|
B|--1--1-----1--1--1-----|
G|-----------------------|
D|-----------------------|
A|-----------------------|
D|-----------------------|

E|--------3~~---------3~~|
B|--1--1-----1--1--1-----|
G|-----------------------|
D|-----------------------|
A|-----------------------|
D|-----------------------|

E|--------3~~---------3~~|
B|--1--1-----1--1--1-----|
G|-----------------------|
D|-----------------------|
A|-----------------------|
D|-----------------------|

E|--------3~~---------3~~|
B|--1--1-----1--1--1-----|
G|-----------------------|
D|-----------------------|
A|-----------------------|
D|-----------------------|

E|--------3~~---------3~~|
B|--1--1-----1--1--1-----|
G|-----------------------|
D|-----------------------|
A|-----------------------|
D|-----------------------|

Guitar 1
E|-----------------------------------------------------------------|
B|-----------------------------------------------------------------|
G|-----------------------------------------------------------------|
D|-----------------------------------------------------------------|
A|-7-7-7-7-7-7-7-7-3-3-3-3-3-3-3-3-0-0-0-0-0-0-0-0-3-3-3-3-3-3-3-3-|
D|-7-7-7-7-7-7-7-7-3-3-3-3-3-3-3-3-0-0-0-0-0-0-0-0-3-3-3-3-3-3-3-3-|

E|----------------------------------------------------------|
B|----------------------------------------------------------|
G|----------------------------------------------------------|
D|----------------------------------------------------------|
A|-7-7-7-7-7-7-7-7-3-3-3-3-3-3-3-3-0-0-0-0-0-0-0-0-3--------|
D|-7-7-7-7-7-7-7-7-3-3-3-3-3-3-3-3-0-0-0-0-0-0-0-0-3--------|

Verse:
Guitar 3
E|-0~~~~~~~~~~~~~~~~~~~~~~~~~~~~~~~~~~~~~~~~|
B|-0~~~~~~~~~~~~~~~~~~~~~~~~~~~~~~~~~~~~~~~~|
G|-2~~~~~~~~~~~~~~~~~~~~~~~~~~~~~~~~~~~~~~~~|
D|-2~~~~~~~~~~~~~~~~~~~~~~~~~~~~~~~~~~~~~~~~|
A|-0~~~~~~~~~~~~~~~~~~~~~~~~~~~~~~~~~~~~~~~~|
D|------------------------------------------|

E|-0~~~~~~~~~~~~~~~~~~~~~~~~~~~~~~~~~~~~~~~~|
B|-0~~~~~~~~~~~~~~~~~~~~~~~~~~~~~~~~~~~~~~~~|
G|-2~~~~~~~~~~~~~~~~~~~~~~~~~~~~~~~~~~~~~~~~|
D|-3~~~~~~~~~~~~~~~~~~~~~~~~~~~~~~~~~~~~~~~~|
A|-3~~~~~~~~~~~~~~~~~~~~~~~~~~~~~~~~~~~~~~~~|
D|------------------------------------------|

E|-0~~~~~~~~~~~~~~~~~~~3~~~~~~~~~~~~~~~~~~~0~~~~~~~~~~~~~~~~~~~~|
B|-0~~~~~~~~~~~~~~~~~~~0~~~~~~~~~~~~~~~~~~~0~~~~~~~~~~~~~~~~~~~~|
G|-2~~~~~~~~~~~~~~~~~~~2~~~~~~~~~~~~~~~~~~~2~~~~~~~~~~~~~~~~~~~~|
D|-2~~~~~~~~~~~~~~~~~~~3~~~~~~~~~~~~~~~~~~~3~~~~~~~~~~~~~~~~~~~~|
A|-0~~~~~~~~~~~~~~~~~~~3~~~~~~~~~~~~~~~~~~~3~~~~~~~~~~~~~~~~~~~~|
D|--------------------------------------------------------------|

E|-0~~~~~-----------------------------------|
B|-0~~~~~0~~~~~~~~~~~~~~~~~~~~~~~~~~~~~~~~~~|
G|-2~~~~~-----------------------------------|
D|-2~~~~~-----------------------------------|
A|-0~~~~~-----------------------------------|
D|------------------------------------------|

E|-0~~~~~-----------------------------------|
B|-0~~~~~0~~~~~~~~~~~~~~~~~~~~~~~~~~~~~~~~~~|
G|-2~~~~~-----------------------------------|
D|-3~~~~~-----------------------------------|
A|-3~~~~~-----------------------------------|
D|------------------------------------------|

E|-0~~~~~--------------3~~~~~--------------0~~~~~0~------------|
B|-0~~~~~0~~~~~~~~~~~~~0~~~~~0~~~~~~~~~~~~~0~~~~~--0~~~~~~~~~~~|
G|-2~~~~~--------------2~~~~~--------------2~~~~~--------------|
D|-2~~~~~--------------3~~~~~--------------3~~~~~--------------|
A|-0~~~~~--------------3~~~~~--------------3~~~~~--------------|
D|-------------------------------------------------------------|

Guitar 4
E|---------------------------------------------------------|
B|---------------------------------------------------------|
G|---------------------------------------------------------|
D|---------------------------------------------------------|
A|-7-7-7-7-7-7-7-7-7-7-7-7-7-7-3-3-3-3-3-3-3-3-3-3-3-3-3-3-|
D|-7-7-7-7-7-7-7-7-7-7-7-7-7-7-3-3-3-3-3-3-3-3-3-3-3-3-3-3-|
   • • • • • • • • • • • • • • • • • • • • • • • • • • • •
E|---------------------------------------------------------|
B|---------------------------------------------------------|
G|---------------------------------------------------------|
D|---------------------------------------------------------|
A|-7-7-7-7-7-7-7-5-5-5-5-5-5-5-3-3-3-3-3-3-3-3-3-3-3-3-3-3-|
D|-7-7-7-7-7-7-7-5-5-5-5-5-5-5-3-3-3-3-3-3-3-3-3-3-3-3-3-3-|
   • • • • • • • • • • • • • • • • • • • • • • • • • • • •
Pre Chorus:
Guitar 1
E|----------------------------------------|
B|----------------------------------------|
G|-5------5---7------5------5---7---------|
D|-3------5---5------3------5---5---------|
A|-3------3---5------3------3---5---------|
D|-3----------5------3----------5---------|

(Start this row off palm muting and then slowly let off of the muting to make it
gradually get more distorted sounding)
E|------------------------------------------------|
B|------------------------------------------------|
G|------------------------------------------------|
D|------------------------------------------------|
A|-3--3--3--3--3--3--3--3--3--3--3--3--3--3--3--3-|
D|-3--3--3--3--3--3--3--3--3--3--3--3--3--3--3--3-|

Chorus:
Guitar 1
E|-----------------------------------------------------------------|
B|-----------------------------------------------------------------|
G|---------------------------------5-5-5-5-5-5-5-5-----------------|
D|---------------------------------5-5-5-5-5-5-5-5-----------------|
A|-7-7-7-7-7-7-7-7-3-3-3-3-3-3-3-3-3-3-3-3-3-3-3-3-5-5-5-5-5-5-5-5-|
D|-7-7-7-7-7-7-7-7-3-3-3-3-3-3-3-3-----------------5-5-5-5-5-5-5-5-|

E|-----------------------------------------------------------------|
B|-----------------------------------------------------------------|
G|---------------------------------5-5-5-5-5-5-5-5-----------------|
D|---------------------------------5-5-5-5-5-5-5-5-----------------|
A|-7-7-7-7-7-7-7-7-3-3-3-3-3-3-3-3-3-3-3-3-3-3-3-3-5-5-5-5-5-5-5-5-|
D|-7-7-7-7-7-7-7-7-3-3-3-3-3-3-3-3-----------------5-5-5-5-5-5-5-5-|

E|----------------------------------------|
B|----------------------------------------|
G|-5------5---7------5------5---7---------|
D|-3------5---5------3------5---5---------|
A|-3------3---5------3------3---5---------|
D|-3----------5------3----------5---------|

E|-----------------------------------------------------------------|
B|-----------------------------------------------------------------|
G|-----------------------------------------------------------------|
D|-----------------------------------------------------------------|
A|-7-7-7-7-7-7-7-7-5-5-5-5-5-5-5-5-3-3-3-3-3-3-3-3-3---------------|
D|-7-7-7-7-7-7-7-7-5-5-5-5-5-5-5-5-3-3-3-3-3-3-3-3-3---------------|

Verse:
Guitar 3
E|-------------------------------------------|
B|----8~~~0~~~~~~~~~~~~~~~~~~~~~~~~~~~~~~~~~~|
G|-5~~---------------------------------------|
D|-------------------------------------------|
A|-------------------------------------------|
D|-------------------------------------------|

E|-------------------------------------------|
B|----8~~~0~~~~~~~~~~~~~~~~~~~~~~~~~~~~~~~~~~|
G|-5~~---------------------------------------|
D|-------------------------------------------|
A|-------------------------------------------|
D|-------------------------------------------|

E|--------------------------------------0~~~~~~~~~~~~~~~~~~~~|
B|----8~~~0~~~~~~~~~~~~~~~~~~~---8~~~0~~---------------------|
G|-5~~------------------------5~~----------------------------|
D|-----------------------------------------------------------|
A|-----------------------------------------------------------|
D|-----------------------------------------------------------|

E|--------0~-----------------------------------|
B|----6~~~--0~~~~~~~~~~~~~~~~~~~~~~~~~~~~~~~~~~|
G|-4~~-----------------------------------------|
D|---------------------------------------------|
A|---------------------------------------------|
D|---------------------------------------------|

Guitar 4
E|---------------------------------------------------------|
B|---------------------------------------------------------|
G|---------------------------------------------------------|
D|---------------------------------------------------------|
A|-7-7-7-7-7-7-7-7-7-7-7-7-7-7-3-3-3-3-3-3-3-3-3-3-3-3-3-3-|
D|-7-7-7-7-7-7-7-7-7-7-7-7-7-7-3-3-3-3-3-3-3-3-3-3-3-3-3-3-|
   • • • • • • • • • • • • • • • • • • • • • • • • • • • •
E|---------------------------------------------------------|
B|---------------------------------------------------------|
G|---------------------------------------------------------|
D|---------------------------------------------------------|
A|-7-7-7-7-7-7-7-5-5-5-5-5-5-5-3-3-3-3-3-3-3-3-3-3-3-3-3-3-|
D|-7-7-7-7-7-7-7-5-5-5-5-5-5-5-3-3-3-3-3-3-3-3-3-3-3-3-3-3-|
   • • • • • • • • • • • • • • • • • • • • • • • • • • • •
Repeat Pre-Chorus
Repeat Chorus

Solo:
Guitar 2
E|-----------------------------15~~~~~---------------------17~~~~22-20~------|
B|------10-13-10~~~~17-15----17-------17-15----------------------------22-20-|
G|-9-12-------------------17----------------17p16b--14-----------------------|
D|-----------------------------------------------------17--------------------|
A|---------------------------------------------------------------------------|
D|---------------------------------------------------------------------------|

E|-20------------------20--------------------------------------------|
B|----22-17--22-20-17-----22-17--22-20-17--20-17----17---------------|
G|-----------------------------------------------19----19-18-16------|
D|--------------------------------------------------------------19---|
A|-------------------------------------------------------------------|
D|-------------------------------------------------------------------|

E|------------------------------------------------------15--17--19--20-------|
B|----------------------------12-13-12-15-12-------15-17--17--17--17---------|
G|-------------------10-12-14----------------14-17---------------------------|
D|----------10-12-14---------------------------------------------------------|
A|-10-12-14------------------------------------------------------------------|
E|---------------------------------------------------------------------------|
   •  •  •  •  •  •
Guitar 1
E|-----------------------------------------------------------------|
B|-----------------------------------------------------------------|
G|-----------------------------------------------------------------|
D|-----------------5-5-5-5-5-5-5-5---------------------------------|
A|-7-7-7-7-7-7-7-7-3-3-3-3-3-3-3-3-5-5-5-5-5-5-5-5-3-3-3-3-3-3-3-3-|
D|-7-7-7-7-7-7-7-7-----------------5-5-5-5-5-5-5-5-3-3-3-3-3-3-3-3-|

E|-----------------------------------------------------------------|
B|-----------------------------------------------------------------|
G|-----------------------------------------------------------------|
D|-----------------5-5-5-5-5-5-5-5---------------------------------|
A|-7-7-7-7-7-7-7-7-3-3-3-3-3-3-3-3-5-5-5-5-5-5-5-5-3-3-3-3-3-3-3-3-|
D|-7-7-7-7-7-7-7-7-----------------5-5-5-5-5-5-5-5-3-3-3-3-3-3-3-3-|

E|-----------------|
B|-----------------|
G|-----------------|
D|-----------------|
A|-3-3-3-3-3-3-3-3-|
D|-3-3-3-3-3-3-3-3-|

Post Solo:
Guitar 1(All palm muting here)
E|-----------------------------------------------------------------|
B|-----------------------------------------------------------------|
G|-----------------------------------------------------------------|
D|-5-5-5-5-5-5-5-5-5-5-5-5-5-5-5-5-5-5-5-5-5-5-5-5-5-5-5-5-5-5-5-5-|
A|-3-3-3-3-3-3-3-3-3-3-3-3-3-3-3-3-3-3-3-3-3-3-3-3-3-3-3-3-3-3-3-3-|
D|-----------------------------------------------------------------|
   • • • • • • • • • • • • • • • • • • • • • • • • • • • • • • • •
E|-----------------------------------------------------------------|
B|-----------------------------------------------------------------|
G|-----------------------------------------------------------------|
D|-5-5-5-5-5-5-5-5-5-5-5-5-5-5-5-5-5-5-5-5-5-5-5-5-5-5-5-5-5-5-5-5-|
A|-3-3-3-3-3-3-3-3-3-3-3-3-3-3-3-3-3-3-3-3-3-3-3-3-3-3-3-3-3-3-3-3-|
D|-----------------------------------------------------------------|
   • • • • • • • • • • • • • • • • • • • • • • • • • • • • • • • •
Repeat Chorus
Suggest correction
Creating personal tab
Creating personal tab
You can edit any tab online and save it as your Personal.

You can edit, replace or remove any tab part or add personal notes – all changes will be seen only by you.

Personal tabs can be accessed anytime from any device, even offline.
Learn more »
Give kudos to tab author, rate the tab!
1 2 3 4 5
comments
print report bad tab
guest
You may want to rate the tab now too:
select rating
Wanna post a correction for this tab? Suggest correction