Oops, an error
Loading. Please wait.

Le Disko bass

version 1
version 1

Whole song

2,539 views 1 this week
6 commentsread comments
1 2 3 4 5
x 4
add to favorites
×
Save as Personal and add changes to this tab that will be seen only by you. Learn more ›
×
You can save this tab as Personal to edit and correct it or add notes. All changes will be seen only by you. Learn more »
launch autoscroll
font size
0
reset
guitar tuner
edit
Autoscroll
slow
fast
+/-
esc
set tempo
stop
Author
Difficulty
There isnt really a bass part to this song, but its fun to play along with the synthesizer. 

-------------------------------------------------------------------------------
			    "Le Disko"- Shiny Toy Guns
-------------------------------------------------------------------------------

Tabbed By : Amberly F

Inro: (0:13)
G|--------------------|
D|--------------------|
A|----7---------------|  
E|-00---0-------------|

VERSE:
G|--------------------|
D|--------------------|
A|----------------7---|  X7
E|-3-33--2-22--00---0-|


CHORUS:
G|---------------------|
D|---------------------|
A|----------------7----|
E|-3-33--2-22--00---0--|

G|---------------------|
D|---------------------|
A|----------------7----|
E|-3-33--2-22--00---0--|

G|---------------------|
D|---------------------|
A|------------7--------|
E|-3x--2x--00---0------|

G|---------------------|
D|---------------------|
A|----------------7----|
E|-3-33--2-22--00---0--|

1:05
Verse X6

Chorus X2

3:02
Chours 


| /  slide up
| \  slide down
| h  hammer-on
| p  pull-off
| ~  vibrato
| +  harmonic
| x  Mute note
===============================================================================

            
            
Suggest correction
Creating personal tab
Creating personal tab
You can edit any tab online and save it as your Personal.

You can edit, replace or remove any tab part or add personal notes – all changes will be seen only by you.

Personal tabs can be accessed anytime from any device, even offline.
Learn more »
comments
print report bad tab
6 comments total. Showing first comments.
0 reply
dacopenhagen 10 May 01, 2007 10:33 PM

i think you're close, but it goes more along the lines of

e
b 5 4 2
a
e 3 3 2 2 0 0 0 0

0 reply
dacopenhagen 10 May 01, 2007 10:33 PM

um...or -


e
b--5 4 2
a
e 3 3 2 2 0 0 0 0

0 reply
dacopenhagen 10 May 01, 2007 10:35 PM

seriously...i hate this thing : P

e
b---5----4------2
a
e-3--3-2--2-0-0--0-0

guest
You may want to rate the tab now too:
select rating
Wanna post a correction for this tab? Suggest correction