Oops, an error
Loading. Please wait.

Le Disko bass

version 2
version 2

Whole song

2,641 views 1 this week
2 commentsread comments
1 2 3 4 5
x 4
add to favorites
×
Save as Personal and add changes to this tab that will be seen only by you. Learn more ›
×
You can save this tab as Personal to edit and correct it or add notes. All changes will be seen only by you. Learn more »
launch autoscroll
font size
0
reset
guitar tuner
edit
Autoscroll
slow
fast
+/-
esc
set tempo
stop
Author
Difficulty
Song: Le Disko
Artist: Shiny Toy Guns
Album: We Are Pilots

Standard Tuning



starts with this at 0:14



G|---------------|
D|------2--------|
A|---------------|
E|--0-0---0------|



INTRO/MAIN RIFF


G|------------------------------------------|
D|---5----4-------2-------------------------|
A|------------------------------------------|
E|-3--3-2---2-0-0---0-----------------------|



BRIDGE 
(2:01)

G|--------------------------------------------------------------------|
D|--------------------------------------------------------------------|
A|-3-3-3-3-3-3-3-3--5-5-5-5-5-5-5-5-----------------------------------|
E|-----------------------------------3-3-3-3-3-3-3-3--0-0-0-0-0-0-0-0-|



 and thats it
if you have any corrections email me at   me_inside_myself@yahoo.com

            
            
Suggest correction
Creating personal tab
Creating personal tab
You can edit any tab online and save it as your Personal.

You can edit, replace or remove any tab part or add personal notes – all changes will be seen only by you.

Personal tabs can be accessed anytime from any device, even offline.
Learn more »
comments
print report bad tab
2 comments total.
+1 reply
guymenton 10 Dec 27, 2007 08:54 PM

fun and simple to play! thanks!

0 reply
nirvanasgreat 31 Jan 07, 2009 05:28 PM

:)

guest
You may want to rate the tab now too:
select rating
Wanna post a correction for this tab? Suggest correction