Oops, an error
Loading. Please wait.

You Are The One tab

version 2
version 2

Whole song

Interactive

1,233 views 1 this week
2 commentsread comments
1 2 3 4 5
1 last vote to show rating
add to favorites
×
Save as Personal and add changes to this tab that will be seen only by you. Learn more ›
×
You can save this tab as Personal to edit and correct it or add notes. All changes will be seen only by you. Learn more »
launch autoscroll
font size
0
reset
how to read this tab
guitar tuner
edit
Autoscroll
slow
fast
+/-
esc
set tempo
stop
Author
Intro
e-|--------------------------------------------|
B-|--------------------------------------------|
G-|--11--10--11--10-10----11--10--11--10--10---|
D-|-8---8--8---8--8-----11--11--11-------------|
A-|---------------------------------11--11--11-|
E-|--------------------------------------------|
repeat x3



VERSE 1
e-|--------------------|
B-|--------------------|
G-|--------------------|
D-|8(x16)-11(x8)-6(x8)-| [eigth notes]
A-|--------------------|  
E-|--------------------| [Background]G2
repeat x4
e-|--------------------|
B-|--------------------|
G-|--------------------|
D-|--566-5-5-566---66--|
A-|--------------------|
E-|--------------------| [Pattern Layover]G1
repeat x8



PRE-CHORUS
e-|-------------------------------------------|
B-|-----------------------9--9---11--11--11---|
G-|--10-10--11-11-11--------------------------|
D-|-11-11--11-11-11-11--11-11--11--11--11---11|
A-|-------------------------------------------|
E-|-------------------------------------------|

e-|-------------------------------------------|
B-|-------------------------------------------|
G-|--11-11--10-10-10------11--11---10--10--10-|
D-|-11-11--11-11-11--11-----------------------|
A-|---------------------11--11---11--11--11---|
E-|-------------------------------------------|
repeat PC x2



CHORUS - It's kinda the bass part too.. but oh well. Sounds good.
[All eigth notes]
e-|----------------------------------------9(x8)------|
B-|---------------------9(x8)-11(x8)-9(x8)-------9(x8)|
G-|---------------------------------------------------|
D-|-8(x8)-10(x8)-11(x8)-------------------------------|
A-|---------------------------------------------------|
E-|---------------------------------------------------|
repeat x2


e-|--------------------------------------------|
B-|--------------------------------------------|
G-|--11--10--11--10-10----11--10--11--10--10---|
D-|-8---8--8---8--8-----11--11--11-------------|
A-|---------------------------------11--11--11-|
E-|--------------------------------------------|
repeat x2



VERSE 2
e-|--------------------|
B-|--------------------|
G-|--------------------|
D-|8(x16)-11(x8)-6(x8)-| [eigth notes]
A-|--------------------|
E-|--------------------| [Background]G2
repeat x4
***The background will play twice before the layover comes in***
e-|--------------------|
B-|--------------------|
G-|--------------------|
D-|--566-5-5-566---66--|
A-|--------------------|
E-|--------------------| [Pattern Layover]G1
repeat x4



PRE-CHORUS
e-|-------------------------------------------|
B-|-----------------------9--9---11--11--11---|
G-|--10-10--11-11-11--------------------------|
D-|-11-11--11-11-11-11--11-11--11--11--11---11|
A-|-------------------------------------------|
E-|-------------------------------------------|

e-|-------------------------------------------|
B-|-------------------------------------------|
G-|--11-11--10-10-10------11--11---10--10--10-|
D-|-11-11--11-11-11--11-----------------------|
A-|---------------------11--11---11--11--11---|
E-|-------------------------------------------|
repeat PC x2



CHORUS
[All eigth notes]
e-|----------------------------------------9(x8)------|
B-|---------------------9(x8)-11(x8)-9(x8)-------9(x8)|
G-|---------------------------------------------------|
D-|-8(x8)-10(x8)-11(x8)-------------------------------|
A-|---------------------------------------------------|
E-|---------------------------------------------------|
repeat x2



BRIDGE
e-|------------|                                   
B-|------------|                                  
G-|-11-10-8-10-|                                   
D-|------------|                                   
A-|------------|                                  
E-|------------|   
repeat x3

[End of 3rd rep]
e-|-------------------|
B-|-----9-------------|
G-|---8-----8-10--8-10|
D-|-10----11----11----|
A-|-------------------|
E-|-------------------| 

e-|------------|                                   
B-|------------|                                  
G-|-11-10-8----|                                   
D-|------------|                                   
A-|------------|                                  
E-|------------| 



CHORUS
[All eigth notes]
e-|----------------------------------------9(x8)------|
B-|---------------------9(x8)-11(x8)-9(x8)-------9(x8)|
G-|---------------------------------------------------|
D-|-8(x8)-10(x8)-11(x8)-------------------------------|
A-|---------------------------------------------------|
E-|---------------------------------------------------|
repeat x2
Suggest correction
Creating personal tab
Creating personal tab
You can edit any tab online and save it as your Personal.

You can edit, replace or remove any tab part or add personal notes – all changes will be seen only by you.

Personal tabs can be accessed anytime from any device, even offline.
Learn more »
Give kudos to tab author, rate the tab!
1 2 3 4 5
comments
print report bad tab
2 comments total.
-1 reply
timmydance 10 Jan 25, 2008 05:17 PM

most of the song is done on a keyboard not a guitar.............

0 reply
Seth1508 10 Jan 26, 2009 05:55 AM

No duh.

That doesn't mean you can't tab it on a guitar, jeez. >_>

guest
You may want to rate the tab now too:
select rating
Wanna post a correction for this tab? Suggest correction