Oops, an error
Loading. Please wait.

Pahintulot chords

460 views 18 this week
no commentswrite comment
1 2 3 4 5
3 more votes to show rating
add to favorites
×
Save as Personal and add changes to this tab that will be seen only by you. Learn more ›
×
You can save this tab as Personal to edit and correct it or add notes. All changes will be seen only by you. Learn more »
launch autoscroll
font size
0
reset
transpose
0
reset
display chords
guitar tuner
edit
Autoscroll
slow
fast
+/-
esc
set tempo
stop
Author
Difficulty
About this tab version
Pitch, timing, and all from Soundcloud, tab/picking pattern from Rappler Live. Was this info helpful? Yes No
Strumming
There is no strumming pattern for this song yet. and get +5 IQ
As seen in I'm Drunk, I Love You (2017), but I patterned it after Shirebound's Soundcloud post thingy

follow this pattern:
e|----------------------------------|
B|---1-------1-------1-------1------|
G|-------0-------0-------0-------0--|
D|----------------------------------|
A|-3---3---3---3---3---3---3---3----|
E|----------------------------------|

with the bass line shifting like this:

e|-------------|
B|-------------|
G|-------------|
D|-------------|
A|-3--0--------|
E|-------1--3--|
   C  Am F  G

to get something like
e|-----------------------------------------------------------------|
B|---1-------1-------1-------1-------1-------1-------1-------1-----|
G|-------0-------0-------0-------0-------0-------0-------0-------0-|
D|-----------------------------------------------------------------|
A|-3---3---3---3---3---3---3---3---0---0---0---0---0---0---0---0---|
E|-----------------------------------------------------------------|
   C                               Am

e|-----------------------------------------------------------------|
B|---1-------1-------1-------1-------1-------1-------1-------1-----|
G|-------0-------0-------0-------0-------0-------0-------0-------0-|
D|-----------------------------------------------------------------|
A|-----------------------------------------------------------------|
E|-1---1---1---1---1---1---1---1---3---3---3---3---3---3---3---3---|
   F                               G (? not sure how to call it)

You can play it chords only but it sounds better like that

C

C
Giliw,
                      Am
(kung) pahihintulutan mo ako
    C
Ipagkakatiwala
                 Am
ko sana sayo ang puso ko

F G C C

C                        Am                      F
Alamat lang ba ang pahinga ng dalawang puyat sa
         G
pira-pirasong
       C
mga bugtong
       C
nagtatanong

  C
Sagot ay hindi mahalaga
  Am
Sapat na sa'king nariyan ka
      F          G
Paumanhin Paumanhin

   C
Salat sa kasanayang linawin

C
Giliw,
                      Am
(kung) pahihintulutan mo ako
     C
ay ipapakilala
                 Am
ko sana sayo ang buong mundo

F  G  C  C

C                    Am                   F
Balagtasan at nagtatapatang makatang maligalig
        G
mga tugma
  C
Limot na kung paano ang
  F        G     C
umasa

F G C
C

C
Giliw,
                      Am
(kung) pahihintulutan mo ako
    C                             Am
Ang aking hangganan ay ipapamalas ko sayo

F  G  C

C                   Am
Giliw, pinakikiusap ko sayo
C                   Am
Sana pakaiingatan yang puso ko

F  G  (C)
Suggest correction
Creating personal tab
Creating personal tab
You can edit any tab online and save it as your Personal.

You can edit, replace or remove any tab part or add personal notes – all changes will be seen only by you.

Personal tabs can be accessed anytime from any device, even offline.
Learn more »
Give kudos to tab author, rate the tab!
1 2 3 4 5
comments
print report bad tab
guest
You may want to rate the tab now too:
select rating
Wanna post a correction for this tab? Suggest correction