Oops, an error
Loading. Please wait.

Los Chorizos De Cojute Chords

by Shock
16 views 1 this week
no commentswrite comment
1 2 3 4 5
3 more votes to show rating
add to favorites
launch autoscroll
font size
0
reset
transpose
0
reset
simplify chords
display chords
guitar tuner
×
Best way to learn
"Los Chorizos De Cojute"
Autoscroll
slow
fast
+/-
esc
set tempo
stop
                         X     C#       B       B5      D#5       C#5                
                     e|--6------4-------2--------------------------------|
                     B|--7------6-------4--------------------------------|
                     G|--6------6-------4--------4-------8---------6-----|
                     D|--4------6-------4--------4-------8---------6-----|
                     A|--4------4-------2--------2-------6---------4-----|
                     E|--4------4-------2--------------------------------|
                         
                       Introducción: X-C#-B  ( 8 veces )   
                      
                 
                       X                 C#                                  
                      Nunca Has Comido chorizos de Cojute
                       B
                      nunca has puteado al cobrador del Bus
                       X                   C# 
                      nunca te han quitado un peso en el parque
                       B 
                      nunca te lo he dicho, todo esto pasa aqui

                       X                     C# 
                      Siempre te ha cuidado tu nana y tu tata
                       B 
                      siempre has tomado cerveza y licor
                       X                     C#
                      siempre con tu mara estas en la jugada
                       B  
                      siempre has escuchado Ska y Hardcore

                      X                      C# 
                     Nunca has comprendido a donde has vivido
                      B  
                     siempre te complace pasarte de Ingenuo
                      X                     C#  
                     nunca te dijeron que aqui no hay dinero
                      B
                     siempre, siempre, siempre sales de vergón


                     B5  D#5-C#5  B5  D#5-C#5  B5 D#5-C#5     X 
                     Vos  Crees   que  sabes,  pero no    alusines


                    ---Se repite la Introducción 4 veces----


                      X                 C#                                  
                      Nunca Has Comido chorizos de Cojute
                       B
                      nunca has puteado al cobrador del Bus
                       X                   C# 
                      nunca te han quitado un peso en el parque
                       B 
                      nunca te lo he dicho, todo esto pasa aqui

                       X                     C# 
                      Siempre te ha cuidado tu mama y tu papa
                       B 
                      siempre has tomado cerveza y licor
                       X                     C#
                      siempre con tu mara estas en la jugada
                       B  
                      siempre has escuchado Ska y Hardcore

                      X                      C# 
                     Nunca has comprendido a donde has vivido
                      B  
                     siempre te complace pasarte de Ingenuo
                      X                     C#  
                     nunca te dijeron que aqui no hay dinero
                      B
                     siempre, siempre, siempre sales de vergón


                      ----Esta parte se repite 2 Veces----    
                                                                               
              Vos crees que sabes, pero no alusines vos crees que sabes pero no alusines
                   e|--------------------------------------------------|
                   B|--------------------------------------------------|
                   G|----------------------------------------11--------|
                   D|8----9---9---8-----9---9---8----9----9--11--------|
                   A|6--67--67----6---67--67----6--67---67----9--------|
                   E|--------------------------------------------------|


                     ----esta parte la repites 4 veces----  
                                           
                   e|-----------------------------------|
                   B|-----------------------------------|
                   G|--11-11----------------------------|
                   D|--11-11--11-11--9-9-11-------------|   
                   A|--9--9---11-11--9-9-11-------------|
                   E|---------9--9---7-7-9--------------|
  
                      ---- La repites 3 veces----      

                   e|-----------------------------------|
                   B|-----------------------------------|
                   G|-----------------------------------|
                   D|-9-9--9-11-11--11------------------|   
                   A|-9-9--9-11-11--11------------------|
                   E|-7-7--7-9--9---9-------------------|

                        ----Una Vez----

                   e|-----------------------------------|
                   B|-----------------------------------|
                   G|-11-11-11--11-11-11----------------|
                   D|-11-11-11--11-11-11----------------|   
                   A|-9--9--9---9--9--9-----------------|
                   E|-----------------------------------|


                   * ---- La repites 3 veces----       

                   e|-----------------------------------|
                   B|-----------------------------------|
                   G|-----------------------------------|
                   D|-9-9--9-11-11--11------------------|   
                   A|-9-9--9-11-11--11------------------|
                   E|-7-7--7-9--9---9-------------------|

                        ----Una Vez----

                   e|-----------------------------------|
                   B|-----------------------------------|
                   G|-11-11-11--11-11-11----------------|
                   D|-11-11-11--11-11-11----------------|   
                   A|-9--9--9---9--9--9-----------------|
                   E|-----------------------------------|


                     ---- A repites 3 veces----      

                   e|-----------------------------------|
                   B|-----------------------------------|
                   G|-----------------------------------|
                   D|-9-9--9-11-11--11------------------|   
                   A|-9-9--9-11-11--11------------------|
                   E|-7-7--7-9--9---9-------------------|

                        ----Una Vez----

                   e|-----------------------------------|
                   B|-----------------------------------|
                   G|-11-11-11--11-11-11----------------|
                   D|-11-11-11--11-11-11----------------|   
                   A|-9--9--9---9--9--9-----------------|
                   E|-----------------------------------|


                    ---- A repites 3 veces----      

                   e|-----------------------------------|
                   B|-----------------------------------|
                   G|-----------------------------------|
                   D|-9-9--9-11-11--11------------------|   
                   A|-9-9--9-11-11--11------------------|
                   E|-7-7--7-9--9---9-------------------|

                        ----Una Vez----

                   e|-----------------------------------|
                   B|-----------------------------------|
                   G|-11-11-11--11-11-11--11------------|
                   D|-11-11-11--11-11-11--11------------|   
                   A|-9--9--9---9--9--9---9-------------|
                   E|-----------------------------------|
Suggest correction
Give kudos to tab author, rate the tab!
1 2 3 4 5
comments
print report bad tab
guest
You may want to rate the tab now too:
select rating
Wanna post a correction for this tab? Suggest correction