Oops, an error
Loading. Please wait.

Send Me A Postcard Bass Tab

version 1
version 1

Whole song

Interactive

7 views 3 this week
no commentswrite comment
1 2 3 4 5
3 more votes to show rating
add to favorites
launch autoscroll
font size
0
reset
guitar tuner
Autoscroll
slow
fast
+/-
esc
set tempo
stop
Help us to improve Ultimate-Guitar.com Take our survey!
×
Author
Difficulty
intermediate
"Send Me A Postcard" by Shocking Blue

[Song Structure]:
Intro - 4x
Verse - 2x
Chorus - 1x
Verse - 2x
Solo (same as Verse) - 2x
Verse - 2x
Chorus - 1x
Verse - 2x
Intro/Bridge - 5x
Verse - 2x
Chorus - 1x
Verse - 2x
----------------------------

[Intro/Bridge]:
(at the 4th time, leave out the last three notes)
G|---------------------------------------------------|
D|---------------------------------------------------|
A|-9--9--9-----12-11-9-----9-----9--9-----7-8--------|
E|--------------------------------------9------------|


[Verse/Solo]:
G|------------------------------------------------------------------------|
D|-------11-------6--9--------------9-----9--9--9-----7--6--------6-------|
A|-9--12-------7--------------6--9--------------------------9--7-----9--7-|
E|-------------------------7----------------------------------------------|


G|------------------------|
D|------------------------|
A|----9-----9-----9--9--7-|
E|-9----------------------|


[Chorus]:
G|------------------------------------------------------------------|
D|----------------------------------------9-----7--6--------6-------|
A|-9--9--9--9--9--9--9--------7-----7-----------------9--7-----9--7-|
E|------------------------------------------------------------------|

G|------------------------------------------------------------------------|
D|----------------------------7--6--------6-------------------------------|
A|----9-----9-----9--9--7-----------9--7-----9--7-----9-----9-----9--9--7-|
E|-9-----------------------------------------------9----------------------|
Suggest correction
Give kudos to tab author, rate the tab!
1 2 3 4 5
comments
print report bad tab
guest
You may want to rate the tab now too:
select rating
Wanna post a correction for this tab? Suggest correction