Oops, an error
Loading. Please wait.

Venus chords

version 4
version 4

Whole song

  • Neither of the 2 chord versions has all the correc... Show more
  • Revisited chords with some improvement, changed so... Show more

Interactive

241 views 15 this week
no commentswrite comment
1 2 3 4 5
2 more votes to show rating
add to favorites
×
Save as Personal and add changes to this tab that will be seen only by you. Learn more ›
×
You can save this tab as Personal to edit and correct it or add notes. All changes will be seen only by you. Learn more »
launch autoscroll
font size
0
reset
transpose
0
reset
simplify chords
display chords
guitar tuner
backing track
0:00
0:00
edit
Autoscroll
slow
fast
+/-
esc
set tempo
stop
Author
Difficulty
About this tab version
Revisited chords with some improvement, changed some chords and added the bridge and the solo. Was this info helpful? Yes No
Strumming
There is no strumming pattern for this song yet. and get +5 IQ
[Intro] 
B7sus4 Em A Em A
B7sus4 Em A Em A Em A Em A

[Verse 1]
  Em           A        Em      A
A goddess on a mountain top
 Em            A        Em      A
burning like a silver flame,
  Em         A         Em    A
Summit of beauty and love,
   Em             A      Em
and Venus was her name.

[Bridge]
e|---------------------|
B|---------------------|
G|---------------------|
D|---------------------|
A|-2-----0-1/2-1/2-0---|
E|---0-3-------------3-|

[Chorus]
      Am     D  Am       D         Em      A  Em  A
She's got it,     yeah baby, she's got it.
       C        B7sus4          Em          A  Em  A
Well, I'm your Venus, I'm your fire at your desire.
       C        B7sus4          Em          A  Em  A
Well, I'm your Venus, I'm your fire at your desire.

[Solo]
e|-----15----14----12---------------------|-----15----14----12-----------------------------------------|
B|--------------------12------------------|--------------------12-------------------------------12-----|
G|-/16----14----12-------11b12-9~------9~-|-/16----14----12-------11b12-9~------9~------9-11b12----12r-|
D|--------------------------------9h11----|--------------------------------9h11----9h11----------------|
A|----------------------------------------|------------------------------------------------------------|
E|----------------------------------------|------------------------------------------------------------|

e|-------------------------------------------------------|
B|-------------------------------------------------------|
G|------9-11b13-11b13r9------9~------9-------------------|
D|-9h11-----------------9h11----9h11---11-9--------------|
A|------------------------------------------10-9-7-----7-|
E|-------------------------------------------------7-9---|

[Verse 2]
 Em           A        Em      A
Her weapon's are her crystal eyes
 Em           A        Em      A
making every man mad.
 Em           A        Em      A
Black as the dark night she was,
Em             A      Em  
got what no one else had.

[Bridge]
e|---------------------|
B|---------------------|
G|---------------------|
D|---------------------|
A|-2-----0-1/2-1/2-0---|
E|---0-3-------------3-|

[Chorus]
 Am     D  Am       D         Em      A  Em  A
She's got it,     yeah baby, she's got it.
       C        B7sus4          Em          A  Em  A
Well, I'm your Venus, I'm your fire at your desire.
       C        B7sus4          Em          A  Em  A
Well, I'm your Venus, I'm your fire at your desire.

[Bridge]
B7sus4 Em A Em A Em A Em A Em A Em A Em A Em

e|---------------------|
B|---------------------|
G|---------------------|
D|---------------------|
A|-2-----0-1/2-1/2-0---|
E|---0-3-------------3-|

[Chorus]
 Am     D  Am       D         Em      A  Em  A
She's got it,     yeah baby, she's got it.
       C        B7sus4          Em          A  Em  A
Well, I'm your Venus, I'm your fire at your desire.
       C        B7sus4          Em          A  Em  A
Well, I'm your Venus, I'm your fire at your desire.

[Bridge]
B7sus4 Em A Em A
B7sus4 Em A Em A Em A Em A

[Solo Outro]
e|-----15----14----12---------------------|-----15----14----12-----------------------------------------|
B|--------------------12------------------|--------------------12-------------------------------12-----|
G|-/16----14----12-------11b12-9~------9~-|-/16----14----12-------11b12-9~------9~------9-11b12----12r-|
D|--------------------------------9h11----|--------------------------------9h11----9h11----------------|
A|----------------------------------------|------------------------------------------------------------|
E|----------------------------------------|------------------------------------------------------------|

e|-------------------------------------------------------|
B|-------------------------------------------------------|
G|------9-11b13-11b13r9------9~------9-------------------|
D|-9h11-----------------9h11----9h11---11-9--------------|
A|------------------------------------------10-9-7-----7-|
E|-------------------------------------------------7-9---|

***********************************

PLAY C (BARRE) CHORDS IN THE 8 FRET WITH THIS FINGERING: 8|10|10|9|8|8

| h   - hammer-on
| b   - bend
| r   - bend release 
| /   - Slide up
| ~   - vibrato

***********************************
Suggest correction
Creating personal tab
Creating personal tab
You can edit any tab online and save it as your Personal.

You can edit, replace or remove any tab part or add personal notes – all changes will be seen only by you.

Personal tabs can be accessed anytime from any device, even offline.
Learn more »
Give kudos to tab author, rate the tab!
1 2 3 4 5
comments
print report bad tab
guest
You may want to rate the tab now too:
select rating
Wanna post a correction for this tab? Suggest correction