Oops, an error
Loading. Please wait.

Egg Tab

version 1
version 1

Whole song

  • Full guitar tab interpreted from YouTube version.

Interactive

199 views 12 this week
no commentswrite comment
1 2 3 4 5
3 more votes to show rating
add to favorites
launch autoscroll
font size
0
reset
how to read this tab
guitar tuner
×
Best way to learn
"Egg"
Autoscroll
slow
fast
+/-
esc
set tempo
stop
Author
Difficulty
About this tab version
Full guitar tab interpreted from YouTube version. Was this info helpful? Yes No
This is my interpretation of Egg by Shoe.
God I wish this band would get back together... (heart)
My first full tab, do with it whatever you wish :)



  Shine my shoes brother!

 [Intro x2]
e|--------------------------------5---5---x---x------------------------------|
B|6---6---x---x---5---5---x---x---5---5---x---x---3---3---x---x--------------|
G|7---7---x---x---5---5---x---x---5---5---x---x---3---3---x---x--------------|
D|7---7---x---x---5---5---x---x---3---3---x---x---3---3---x---x--------------|
A|5---5---x---x---3---3---x---x-------------------1---1---x---x--------------|
E|---------------------------------------------------------------------------|

 [Verse x4]
e|--------------------------------5---5---x---x------------------------------|
B|6---6---x---x---5---5---x---x---5---5---x---x---3---3---x---x--------------|
G|7---7---x---x---5---5---x---x---5---5---x---x---3---3---x---x--------------|
D|7---7---x---x---5---5---x---x---3---3---x---x---3---3---x---x--------------|
A|5---5---x---x---3---3---x---x-------------------1---1---x---x--------------|
E|---------------------------------------------------------------------------|
  Furry,          little,         squirrel,     I need you,
  I don't,        think that,     I want,       to be you,
  I hate,    everybody,           Get out,  of my Kitchen,
  Lay down, in the forest,        Live with,   my affliction.

 [Pre-chorus]
e|---------------------------------------------------------------------------|
B|6---6---x---x---6---6---x---x---6---6---x---x---6---6---x---x--------------|
G|7---7---x---x---7---7---x---x---7---7---x---x---7---7---x---x--------------|
D|7---7---x---x---7---7---x---x---7---7---x---x---7---7---x---x--------------|
A|5---5---x---x---5---5---x---x---5---5---x---x---5---5---x---x--------------|
E|---------------------------------------------------------------------------|

 [Chorus]
e|---------------------------------------------------------------------------|
B|6---6---x---x---6---6---x---x---6---6---x---x---5---5---x---x--------------|
G|7---7---x---x---7---7---x---x---7---7---x---x---5---5---x---x--------------|
D|7---7---x---x---7---7---x---x---7---7---x---x---5---5---x---x--------------|
A|5---5---x---x---5---5---x---x---5---5---x---x---3---3---x---x--------------|
E|---------------------------------------------------------------------------|
  I               cannot          breathe,        When you're

e|5---5---x---x---5---5---x---x----------------------------------------------|
B|5---5---x---x---5---5---x---x---3---3---x---x---5---5---x---x--------------|
G|5---5---x---x---5---5---x---x---3---3---x---x---5---5---x---x--------------|
D|3---3---x---x---3---3---x---x---3---3---x---x---5---5---x---x--------------|
A|--------------------------------1---1---x---x---3---3---x---x--------------|
E|---------------------------------------------------------------------------|
  there,          I can't         see,            When you're

e|---------------------------------------------------------------------------|
B|6---6---x---x---6---6---x---x---6---6---x---x---5---5---x---x--------------|
G|7---7---x---x---7---7---x---x---7---7---x---x---5---5---x---x--------------|
D|7---7---x---x---7---7---x---x---7---7---x---x---5---5---x---x--------------|
A|5---5---x---x---5---5---x---x---5---5---x---x---3---3---x---x--------------|
E|---------------------------------------------------------------------------|
  smiling                      to me,             And I

  |Let Ring                       |Let Ring       |Let Ring 
e|5--------------------------------------------------------------------------|
B|5-------------------------------3---------------5--------------------------|
G|5-------------------------------3---------------5--------------------------|
D|3-------------------------------3---------------5--------------------------|
A|--------------------------------1---------------3--------------------------|
E|---------------------------------------------------------------------------|
  try         to smile            back.

 [Bridge x4]
               |Let Ring                       |Let Ring
e|---------------------------------------------------------------------------|
B|---------------------------------------------------------------------------|
G|---------------------------------------------------------------------------|
D|---------------------------------------------------------------------------|
A|5---5---5--4-3------------------8---8---8--7-------------------------------|
E|---------------------------------------------6-----------------------------|
                      Hey!                        Ah-ahh!
                      Hey!                        Ah-ahh!
                      Hey!                        Ah-ahh!


 [Pre-verse]
e|--------------------------------5---5---x---x------------------------------|
B|6---6---x---x---5---5---x---x---5---5---x---x---3---3---x---x--------------|
G|7---7---x---x---5---5---x---x---5---5---x---x---3---3---x---x--------------|
D|7---7---x---x---5---5---x---x---3---3---x---x---3---3---x---x--------------|
A|5---5---x---x---3---3---x---x-------------------1---1---x---x--------------|
E|---------------------------------------------------------------------------|

 [Verse x4]
e|--------------------------------5---5---x---x------------------------------|
B|6---6---x---x---5---5---x---x---5---5---x---x---3---3---x---x--------------|
G|7---7---x---x---5---5---x---x---5---5---x---x---3---3---x---x--------------|
D|7---7---x---x---5---5---x---x---3---3---x---x---3---3---x---x--------------|
A|5---5---x---x---3---3---x---x-------------------1---1---x---x--------------|
E|---------------------------------------------------------------------------|
  Climbin',    sunshinin',        Keepin',     my head warm,
  Trying,   (ha)  Darling,        Boy you,   have been warned,
And I hate,   all the people,     Get out,     of my bedroom,
  This was,    un-foreseeable,    Aching,      to be near you.


[Chorus]

[Bridge]
                                                  But my
 [x3]
e|---------------------------------------------------------------------------|
B|6-------6-------2-------2-------3-------3----------------------------------|
G|5-------5-------2-------2-------2-------2-------3-------3------------------|
D|3-------3-------2-------2-------0-------0-------3-------3------------------|
A|------------------------------------------------1-------1------------------|
E|---------------------------------------------------------------------------|
  lips hurt       when I          do,             My
  lips hurt       when I          do,             My
  lips hurt       when I          smile,          My

                                  |Let ring ->
e|---------------------------------------------------------------------------|
B|6-------6-------2-------2-------3------------------------------------------|
G|5-------5-------2-------2-------2------------------------------------------|
D|3-------3-------2-------2-------0------------------------------------------|
A|---------------------------------------------------------------------------|
E|---------------------------------------------------------------------------|
  lips hurt       when I          smile,          My

 [x4]
e|--------------------------------5---5---x---x------------------------------|
B|6---6---x---x---5---5---x---x---5---5---x---x---3---3---x---x--------------|
G|7---7---x---x---5---5---x---x---5---5---x---x---3---3---x---x--------------|
D|7---7---x---x---5---5---x---x---3---3---x---x---3---3---x---x--------------|
A|5---5---x---x---3---3---x---x-------------------1---1---x---x--------------|
E|---------------------------------------------------------------------------|
  lips hurt       when I          smile,          My
  lips hurt       when I          smile,          My
  lips hurt       when I          smile,          My
  lips hurt       when I.


 [Bridge x2]
               |Let Ring                       |Let Ring
e|---------------------------------------------------------------------------|
B|---------------------------------------------------------------------------|
G|---------------------------------------------------------------------------|
D|---------------------------------------------------------------------------|
A|5---5---5--4-3------------------8---8---8--7-------------------------------|
E|---------------------------------------------6-----------------------------|
                      Hey!                        Ah-ahh!
                      Hey!                        Ah-ahh!
 [x4]
e|--------------------------------5---5---x---x------------------------------|
B|6---6---x---x---5---5---x---x---5---5---x---x---3---3---x---x--------------|
G|7---7---x---x---5---5---x---x---5---5---x---x---3---3---x---x--------------|
D|7---7---x---x---5---5---x---x---3---3---x---x---3---3---x---x--------------|
A|5---5---x---x---3---3---x---x-------------------1---1---x---x--------------|
E|---------------------------------------------------------------------------|
                                                  Ah-ahh!
                                                          Bass!
                                                          Ohh-Egg!

 [Ending]
e|---------------------------------------------------------------------------|
B|6-6-6-6-6-6-6-6-6-6-6-6-6-6-6-6-6-6-6-6-6-6-6-6-5-5-5-5-5-5-5-5------------|
G|7-7-7-7-7-7-7-7-7-7-7-7-7-7-7-7-7-7-7-7-7-7-7-7-5-5-5-5-5-5-5-5------------|
D|7-7-7-7-7-7-7-7-7-7-7-7-7-7-7-7-7-7-7-7-7-7-7-7-5-5-5-5-5-5-5-5------------|
A|5-5-5-5-5-5-5-5-5-5-5-5-5-5-5-5-5-5-5-5-5-5-5-5-3-3-3-3-3-3-3-3------------|
E|---------------------------------------------------------------------------|
  I               cannot          breathe,        When you're

e|5-5-5-5-5-5-5-5-5-5-5-5-5-5-5-5--------------------------------------------|
B|5-5-5-5-5-5-5-5-5-5-5-5-5-5-5-5-3-3-3-3-3-3-3-3-5-5-5-5-5-5-5-5------------|
G|5-5-5-5-5-5-5-5-5-5-5-5-5-5-5-5-3-3-3-3-3-3-3-3-5-5-5-5-5-5-5-5------------|
D|3-3-3-3-3-3-3-3-3-3-3-3-3-3-3-3-3-3-3-3-3-3-3-3-5-5-5-5-5-5-5-5------------|
A|--------------------------------1-1-1-1-1-1-1-1-3-3-3-3-3-3-3-3------------|
E|---------------------------------------------------------------------------|
  there           I can't         see,            When you're

e|---------------------------------------------------------------------------|
B|6-6-6-6-6-6-6-6-6-6-6-6-6-6-6-6-6-6-6-6-6-6-6-6-5-5-5-5-5-5-5-5------------|
G|7-7-7-7-7-7-7-7-7-7-7-7-7-7-7-7-7-7-7-7-7-7-7-7-5-5-5-5-5-5-5-5------------|
D|7-7-7-7-7-7-7-7-7-7-7-7-7-7-7-7-7-7-7-7-7-7-7-7-5-5-5-5-5-5-5-5------------|
A|5-5-5-5-5-5-5-5-5-5-5-5-5-5-5-5-5-5-5-5-5-5-5-5-3-3-3-3-3-3-3-3------------|
E|---------------------------------------------------------------------------|
  smiling                      to me,             When you're

e|5-5-5-5-5-5-5-5-5-5-5-5-5-5-5-5--------------------------------------------|
B|5-5-5-5-5-5-5-5-5-5-5-5-5-5-5-5-3-3-3-3-3-3-3-3-x--------------------------|
G|5-5-5-5-5-5-5-5-5-5-5-5-5-5-5-5-3-3-3-3-3-3-3-3-x--------------------------|
D|3-3-3-3-3-3-3-3-3-3-3-3-3-3-3-3-3-3-3-3-3-3-3-3-x--------------------------|
A|--------------------------------1-1-1-1-1-1-1-1-x--------------------------|
E|---------------------------------------------------------------------------|
  smiling        to               me.                     

 [x4]          |Let Ring                       |Let Ring
e|---------------------------------------------------------------------------|
B|---------------------------------------------------------------------------|
G|---------------------------------------------------------------------------|
D|---------------------------------------------------------------------------|
A|5---5---5--4-3------------------8---8---8--7-------------------------------|
E|---------------------------------------------6-----------------------------|
To meeeeeeeeeeeeeeee-
To meeeeeeeeeeeeeeee-
                     Hey!                         Ah-ahh!
                     Hey!                         Ah-ahh!

e|---------------------------------------------------------------------------|
B|6---6---x---x---6---6---x---x---6---6---x---x---6---6---x---x--------------|
G|7---7---x---x---7---7---x---x---7---7---x---x---7---7---x---x--------------|
D|7---7---x---x---7---7---x---x---7---7---x---x---7---7---x---x--------------|
A|5---5---x---x---5---5---x---x---5---5---x---x---5---5---x---x--------------|
E|---------------------------------------------------------------------------|



************************************

| x   Dead note

************************************
Suggest correction
Give kudos to tab author, rate the tab!
1 2 3 4 5
comments
print report bad tab
guest
You may want to rate the tab now too:
select rating
Wanna post a correction for this tab? Suggest correction