Oops, an error
Loading. Please wait.

Cycling Is Fun Bass Tab

660 views 1 this week
no commentswrite comment
1 2 3 4 5
3 more votes to show rating
add to favorites
launch autoscroll
font size
0
reset
guitar tuner
Autoscroll
slow
fast
+/-
esc
set tempo
stop
Help us to improve Ultimate-Guitar.com Take our survey!
×
Main Riff/Verse                      x7
G--------------------------------------|
D--------------------------------------|
A-7-7-7--7-7--7-7-6--4-4-4--4-4--4-4-6-|
E--------------------------------------|

Chorus                          x3 
G---------------------------------|----------------------------------|
D---------6-6-6-6-7-7-7-7-9-9-9-9-|---------6-6-6-6-7-7-7-7--999-999-|
A-7-7-7-7-------------------------|-7-7-7-7--------------------------|
E---------------------------------|----------------------------------|

Verse 2                              x4
G--------------------------------------|
D--------------------------------------|
A-9-9-9--9-9--9-9-8--6-6-6--6-6--6-6-8-|
E--------------------------------------|

Chorus 2                        x3
G-------------------------6-6-6-6-|-------------------------666-666-|
D---------8-8-8-8-9-9-9-9---------|---------8-8-8-8-9-9-9-9---------|
A-9-9-9-9-------------------------|-9-9-9-9-------------------------|
E---------------------------------|---------------------------------|

Main Riff                            x2
G--------------------------------------|
D--------------------------------------|
A-7-7-7--7-7--7-7-6--4-4-4--4-4--4-4-6-|
E--------------------------------------|

Ending   (*=hold)
G--------------------------|
D-9*-----7*-----6*-----4-4-|
A--------------------------|
E--------------------------|

Off the "Yama-No Attchan" album

Suggest correction
Give kudos to tab author, rate the tab!
1 2 3 4 5
comments
print report bad tab
guest
You may want to rate the tab now too:
select rating
Wanna post a correction for this tab? Suggest correction