Oops, an error
Loading. Please wait.

Esp Bass Tab

506 views 1 this week
no commentswrite comment
1 2 3 4 5
please rate
add to favorites
launch autoscroll
font size
0
reset
guitar tuner
Tab Pro tools
  • play this tab
  • loop segment
  • change instrument
  • show fretboard
  • metronome
Autoscroll
slow
fast
+/-
esc
set tempo
stop
One of My favorite songs from Shonen Knife.
Its pretty simple once you get the hang of
the beat! Enjoy!

Shonen Knife - E.S.P.


" = Play 4 Times

' = Play 10 Times

/ = Slde

~ = Let ring

[Intro] "Extra. Sensory. Perception..."
G-------------------------------------|
D-------------------------------------|  X 40!
A-------------------------------------|
E--3-3-33-33-3-3-33-------------------|

[Verse 1] "I saw her on my T.V..."
G-------------------------------------|
D----------3'--5'----5---5------------|  X 2
A--3'--0'----------33--33-------------|
E-------------------------------------|

[Chorus 1] "E.S.P.... E.S.P...."
G------------------------------------------------------------------|
D------------------------------------------------------------------|
A--3"---3"---0"---0"---3"---3"---1-1-1-1---------------------------|
E-----------------------------------------3-3-3-3-3333-------------|

[Bridge]
G-----------------------------|
D-----------------------------|
A--1-1-1-1--------------------|
E-----------3-3-3-3-3333------|

**[Play Verse 1 & Chorus 1 with Bridge again, and then continue on.]**

[Chorus 2] "Does she have E...S...P...?"
G-----------------------------------------------|
D--3-3-3-3-3--5-5-5-5-5-------------------------|  X 2
A------------------------3-3-3-3-3--0-0-0-0-0---|
E-----------------------------------------------|

"And I wanna know, wanna know..."
G-----------------------------------------------|
D--3333333333333333--555555555~ ------3---------|
A---------------------------------3-3---3333333-|
E-----------------------------------------------|

**[Play the intro again & get ready for the solo.]**

[Bass & Guitar Solo] X 2
G------------------------------------------------|
D------------------------------------------------|
A--3-3-2-3/5-5-3-2-3--3-3-2-3/5-5-3-2-3----------|
E------------------------------------------------|

G------------------------------------------------|
D---3-3-2-3/5-5-3-2-3--0000--1111--2222-3333-----|
A------------------------------------------------|
E------------------------------------------------|

**[Play Chorus 2 again Twice this time! Listen for the change.]**

[Ending] (same as intro)
G-------------------------------------|
D-------------------------------------|  X 40!
A-------------------------------------|
E--3-3-33-33-3-3-33-------------------|

G-------------------------------------|
D-------------------------------------|
A--3~ --------------------------------|
E-------------------------------------|

And thats it! Any Questions? email me at Mrkunio@gmail.com Thanks
comments
We did not receive enough feedback on this tab! Please rate:
print report bad tab
1 2 3 4 5
I want to post or [tab]
guest
You may want to rate the tab now too:
select rating
Please do not post tabs as comments. Select "correction" instead!