Oops, an error
Loading. Please wait.

Strawberry Creampuff Bass Tab

136 views 1 this week
no commentswrite comment
1 2 3 4 5
please rate
add to favorites
launch autoscroll
font size
0
reset
guitar tuner
Tab Pro tools
  • play this tab
  • loop segment
  • change instrument
  • show fretboard
  • metronome
×
Best way to learn
"Strawberry Creampuff"
Autoscroll
slow
fast
+/-
esc
set tempo
stop
Contributor
Difficulty
INTRO:

G:-----------------------|
D:------4---4--2---2-24--|
A:4---4---44-----22----2-|
E:--44-------------------|

VERSE:
(I SPENT HAPPY DAYS BEFORE I ATE STRAWBERRY CREAMPUFF)
G:------------------------|
D:------4---4--2---2-24---|
A:4---4---44-----22----2--|
E:--44--------------------| X4

PRE CHORUS:
(IT CAN EASILY DISAPPEAR...)
G:-------------------|
D:------4---4--------|
A:4---4---44---------|
E:--44---------------|  X3 THEN

G:-------------------|
D:------4---4--3-2-1-| (NOT SURE ABOUT THIS PART)
A:4---4---44---------|
E:--44---------------|

CHORUS:
(BUT I CAN'T MAKE STRAWBERRY CREAMPUFF)
G:-----------------------------------------|
D:--44-6-2222---44-6-2222---44-6-22224--2--|
A:22----------22----------22-------------2-|
E:-----------------------------------------|

VERSE: X5 (EVERYDAY IS LONELY SINCE I ATE STRAWBERRY CREAMPUFF)
PRE CHORUS:
CHORUS:
PLAY VERSE 4 TIMES THROUGH SOLO
PRE CHORUS:
CHORUS: X2

OUTRO:
(BUT I NEED MY STRAWBERRY CREAMPUFF)
G:----------------|
D:4--2---4--222---|
A:----2--------2--|R
E:----------------|
comments
We did not receive enough feedback on this tab! Please rate:
print report bad tab
1 2 3 4 5
I want to post or [tab]
guest
You may want to rate the tab now too:
select rating
Please do not post tabs as comments. Select "correction" instead!