Oops, an error
Loading. Please wait.

Twist Barbie Tab

402 views 1 this week
no commentswrite comment
1 2 3 4 5
please rate
add to favorites
launch autoscroll
font size
0
reset
how to read this tab
guitar tuner
Tab Pro tools
  • play this tab
  • loop segment
  • change instrument
  • show fretboard
  • metronome
Autoscroll
slow
fast
+/-
esc
set tempo
stop
-----------------------------------------------------------------------------
                         Twist Barbie - Shonen Knife
-----------------------------------------------------------------------------
Tabbed by: Anonymous 


Tuning: Standard

"X = times"

Intro.
e|--------------------------------------------------------------------------|
B|--------------------------------------------------------------------------|
G|-------5-------7-------5---7/9--------------------------------------------|
D|--7----5--7----7--7----5-7-/9-x6------------------------------------------|
A|--7-x5-3--7-x5-5--7-x5-3-7-/7---------------------------------------------|
E|--5-------5-------5------5------------------------------------------------|


Verses
e|--------------------------------------------------------------------------|
B|--------------------------------------------------------------------------|
G|-----7--------------------------------------------------------------------|
D|-5/7-7-7------------------------------------------------------------------|
A|-5/7-5-7------------------------------------------------------------------|
E|-3/5---5------------------------------------------------------------------|

Pre Chorus
e|--------------------------------------------------------------------------|
B|--------------------------------------------------------------------------|
G|---5-----5-----5/9--------------------------------------------------------|
D|-7-5---7-5---7-5/9--------------------------------------------------------|
A|-7-3---7-3---7-3/7--------------------------------------------------------|
E|-5-----5-----5------------------------------------------------------------|

Chorus
e|--------------------------------------------------------------------------|
B|--------------------------------------------------------------------------|
G|---5-7-9------------------------------------------------------------------|
D|-7-5-7-9------------------------------------------------------------------|
A|-7-3-5-7------------------------------------------------------------------|
E|-5------------------------------------------------------------------------|

Outro
e|--------------------------------------------------------------------------|
B|--------------------------------------------------------------------------|
G|---9----------------------------------------------------------------------|
D|-7-9----------------------------------------------------------------------|
A|-7-7----------------------------------------------------------------------|
E|-5------------------------------------------------------------------------|

Enjoy.
comments
We did not receive enough feedback on this tab! Please rate:
print report bad tab
1 2 3 4 5
I want to post or [tab]
guest
You may want to rate the tab now too:
select rating
Please do not post tabs as comments. Select "correction" instead!