Oops, an error
Loading. Please wait.

4Th Of July bass

1,574 views 3 this week
no commentswrite comment
1 2 3 4 5
2 more votes to show rating
add to favorites
×
Save as Personal and add changes to this tab that will be seen only by you. Learn more ›
×
You can save this tab as Personal to edit and correct it or add notes. All changes will be seen only by you. Learn more »
launch autoscroll
font size
0
reset
guitar tuner
edit
Autoscroll
slow
fast
+/-
esc
set tempo
stop
Author
Difficulty
              4th of july - shooter jennings

note:this was my first ever attempt to tab a song so go easy on me just get the timing 
its an easy song fun just practice over and over


Tabbed By : austin murphy
e-mail: awmurphy3@myspace.com

Tuning:GDAE
                      intro
G|-----------------------------------------------------------------------------|
D|-----------------------------------------------------------------------------|
A|----5----------5-------------------5--55--55---------------------------------|
E|-5--------5-------------5--55--55--------------------------------------------|
repeat 1

                            verse
G|---------------------------------------------------------------------------|
D|---------------------------------------------------------------------------|
A|-----------------7-77----7-77-----5-55---5-55----9-99----7-77--------------|
E|--5-55-0--5-55-0------7-------7--------5------5-------9-------7------------|
repeat untill pre-chorus

                 pre chorus
G|---------------------------------------------------------------------------|
D|---------------------------------------------------------------------------|
A|--5----55-------7---77---77-------777777-----------------------------------|
E|-----------5---------------------------------------------------------------|
(this part) repeat

                       chorus
G|---------------------------------------------------------------------------|
D|---------------------------------------------------------------------------|
A|-----------------7-77----------------------5-55----------------------------|
E|-5-55-0--5-55-0-------7----5-55-0--5-55-0-------5--------------------------|
repeat untill bridge


                         bridge
G|---------------------------------------------------------------------------|
D|---------------------------------------------------------------------------|
A|------------5-55-5555------------------------------------------------------|
E|-5-55-5555-----------------------------------------------------------------|
repeat until verse

                           solo
G|---------------------------------------------------------------------------|
D|---------------------------------------------------------------------------|
A|-------------------9-99---9-99------5-55---5-55---7-77---7-77--------------|
E|--5-55-0-5--5-55-0------9------9---------5------5------7------7------------|
                     ending after last chorus of song
G|---------------------------------------------------------------------------|
D|---------------------------------------------------------------------------|
A|-5-5-5-5-----5-------------------------------------------------------------|
E|-----------------3--7--5~--------------------------------------------------|

order list

intro
verse
pre-chorus
chorus
bridge
verse
pre-chorus
chorus
bridge
solo
bridge
chorus
end

            
            
Suggest correction
Creating personal tab
Creating personal tab
You can edit any tab online and save it as your Personal.

You can edit, replace or remove any tab part or add personal notes – all changes will be seen only by you.

Personal tabs can be accessed anytime from any device, even offline.
Learn more »
Give kudos to tab author, rate the tab!
1 2 3 4 5
comments
print report bad tab
guest
You may want to rate the tab now too:
select rating
Wanna post a correction for this tab? Suggest correction