Oops, an error
Loading. Please wait.

Im A Long Way From Home chords

version 1
version 1

Whole song

57,742 views 108 this week
6 commentsread comments
1 2 3 4 5
x 29
add to favorites
×
Save as Personal and add changes to this tab that will be seen only by you. Learn more ›
×
You can save this tab as Personal to edit and correct it or add notes. All changes will be seen only by you. Learn more »
launch autoscroll
font size
0
reset
transpose
0
reset
simplify chords
display chords
guitar tuner
edit
Autoscroll
slow
fast
+/-
esc
set tempo
stop
Author
Difficulty
Strumming
There is no strumming pattern for this song yet. and get +5 IQ
-------------------------------------------------------------------------------
                        I'm a Long Way from Home - Shooter Jennings
-------------------------------------------------------------------------------
Tabbed by: Dave McGinn (http://davemcginn3.dmusic.com)
Email: 

Tuning: Standard
 
'I'm a Long Way from Home'
 
[Intro] 
e|---------------------------------------------------------------------------|
B|----------3-----------------------------------------------------------------|
G|--------2-------------------------------------------------------------------|
D|------0---------------------------------------------------------------------|
A|----0-----------------------------------------------------------------------|
E|--3-------------------------------------------------------------------------|

[Chorus]
       G   A
I'm a long way from home
G      A
 And so all alone
G                 A                 D
 Homesick, like I never thought I'd be
       G   A
I'm a long way from home
G         A
 And everything is wrong
G               A          D
 Someone please watch over me

[Verse]
D       D7                  G
I'm not accustomed to these feelings
A                               D
 The lonliness is burning in my soul
D             D7          G
Sometimes the mind is so misleading
A                                    D
I wish I'd stayed at home like I was told

[Chorus]
       G   A
I'm a long way from home
G      A
 And so all alone
G                 A                 D
 Homesick, like I never thought I'd be
       G   A
I'm a long way from home
G         A
 And everything is wrong
G               A          D
 Someone please watch over me  

            
            
Suggest correction
Creating personal tab
Creating personal tab
You can edit any tab online and save it as your Personal.

You can edit, replace or remove any tab part or add personal notes – all changes will be seen only by you.

Personal tabs can be accessed anytime from any device, even offline.
Learn more »
comments
print report bad tab
6 comments total. Showing first comments.
0 reply
Ultan000 10 Dec 20, 2007 03:19 AM

intro sounds right to me...great song

0 reply
Gossip 10 Jul 18, 2008 02:29 AM

sounded really good to me
thanks

0 reply
funkmaster00k 21 Oct 06, 2008 08:01 PM

great tab to a great song, tho you threw me me off with the jennings, Shooter thing lol

im thinkin the bass run he hits going from D to G is:
D|-0-------------|
A|---------------|
E|---0-2-3---------|

guest
You may want to rate the tab now too:
select rating
Wanna post a correction for this tab? Suggest correction