Oops, an error
Loading. Please wait.

25 chords

19 views 3 this week
no commentswrite comment
1 2 3 4 5
3 more votes to show rating
add to favorites
×
Save as Personal and add changes to this tab that will be seen only by you. Learn more ›
×
You can save this tab as Personal to edit and correct it or add notes. All changes will be seen only by you. Learn more »
launch autoscroll
font size
0
reset
transpose
0
reset
display chords
guitar tuner
edit
Autoscroll
slow
fast
+/-
esc
set tempo
stop
Author
About this tab version
As the author of this song, I know it to be correct. Was this info helpful? Yes No
Strumming
There is no strumming pattern for this song yet. and get +5 IQ
25
From the 2006 release "You're Not Gonna Want To Hear This"

[Intro]
 F#          E          F#         D
 F#          E          F#    A    B



[Verse 1]
F#
I want you to know that I don't mean anything.
    D                                   A               G#
I'm not the type of guy that's going to tell you how to live your life.
  F#
I know the talking and touching could give the wrong impression.
     D                                  A               G#
With all the time we spend together but not "together", I think you should...



[Pre-Chorus 1]
 D
...just let go of what you're feeling. Spend the night and stop your teasing.
B
I won't wait around forever - you're gonna miss your chance.



[Chorus 1]
 A      D      E
e|--------------------------|
B|--------------------------|
G|--------7------1------9b--|
D|-7------7------2----------|
A|-7------5------2----------|
E|-5-------------0----------|

                 A                             D
If you're in the neighborhood tonight, stop on by - I'll make you feel alright.
E
Light one up and fill your cup, and we'll never go inside.
        A                                  D
Take my word this one last time. If you'll just give it a try,
E
we'll never come down from this high. I knew that you'd be mine at 25.



[Verse 2]
F#
The laughing and leaving is too much contradicting.
    D                                    A                       G#
Life's too short to mess around with the guy you're with - he'll only bring you down.
F#
I'll back off if you want - it's no skin off my back.
    D                                     A                    G#
Cuz you're still young and I'm too old to waste my time.  It's exactly like I've...



[Pre-Chorus 2]
 D
...told myself a million times. It's just not worth a sleepless night.
B
I won't wait around forever - you're gonna miss your chance.



[Chorus 2]
 A      D      E
e|--------------------------|
B|--------------------------|
G|--------7------1------9b--|
D|-7------7------2----------|
A|-7------5------2----------|
E|-5-------------0----------|

                 A                             D
If you're in the neighborhood tonight, stop on by - I'll make you feel alright.
E
Light one up and fill your cup, and we'll never go inside.
        A                                  D
Take my word this one last time. If you'll just give it a try,
E
we'll never come down from this high. I knew that you'd be mine at 25.



[Solo]
 F#
e|-------------------------------------------------------------------|
B|---------------12-------------------------------12-----------------|
G|-11~~-11-11-11----11-9-11~~--11-9------------------11-9-11~~-------|
D|----------------------------------11-10-9----11--------------------|
A|------------------------------------------12-----------------------|
E|-------------------------------------------------------------------|

 D                               A                G#
e|-------------------------------------------------------------------|
B|-10-10-10h11p10 10-10-10s12-10---10-9-7-9-7---7---7----------------|
G|--------------------------------------------9---9---9-6---6--------|
D|--------------------------------------------------------9---9-6-4--|
A|-------------------------------------------------------------------|
E|-------------------------------------------------------------------|

 F#                                D
e|-------------------------------------------------------------------|
B|-------------------------------------------------------------------|
G|-------------------------------------------------------------------|
D|-6~~~~-4~~~-4-4s6~~-4~~-6~~-7~-7-7s9~~-7~~-9~~-s12~~-12-12---------|
A|-------------------------------------------------------------------|
E|-------------------------------------------------------------------|

 A                       G#                                         (D)
e|-------------------------12h14p12---12h14p12---12h14p12---12h14p12---s17~~-|
B|----------------12----12---------14p--------14p--------14p--------14p------|
G|----------13-14----14------------------------------------------------------|
D|-12-14-15------------------------------------------------------------------|
A|---------------------------------------------------------------------------|
E|---------------------------------------------------------------------------|



[Chorus 3]
 A      D      E
e|--------------------------|
B|--------------------------|
G|--------7------1------9b--|
D|-7------7------2----------|
A|-7------5------2----------|
E|-5-------------0----------|

                 A                             D
If you're in the neighborhood tonight, stop on by - I'll make you feel alright.
E
Light one up and fill your cup, and we'll never go inside.
        A                                  D
Take my word this one last time. If you'll just give it a try,
E
we'll never come down from this high. I knew that you'd be mine.
                A                          D
I don't have to try to tell you why. I can see it in your eyes.
E
The days go by while I pass the time until we'll be unified at 25.



[Outro]
F#      D    E    F#

            
            
Suggest correction
Creating personal tab
Creating personal tab
You can edit any tab online and save it as your Personal.

You can edit, replace or remove any tab part or add personal notes – all changes will be seen only by you.

Personal tabs can be accessed anytime from any device, even offline.
Learn more »
Give kudos to tab author, rate the tab!
1 2 3 4 5
comments
print report bad tab
guest
You may want to rate the tab now too:
select rating
Wanna post a correction for this tab? Suggest correction