Oops, an error
Loading. Please wait.

Ignore Me tab

44 views 1 this week
no commentswrite comment
1 2 3 4 5
3 more votes to show rating
add to favorites
×
Save as Personal and add changes to this tab that will be seen only by you. Learn more ›
×
You can save this tab as Personal to edit and correct it or add notes. All changes will be seen only by you. Learn more »
launch autoscroll
font size
0
reset
how to read this tab
guitar tuner
edit
Autoscroll
slow
fast
+/-
esc
set tempo
stop
IGNORE ME
From the 2003 release "Wasted Time"

[Verse 1]
C#
Everything's not okay.
                   F#              G#
I'm never happy anymore to see you when you hang around by me.
C#
I wish you'd go away - 
                              F#               G#
Not from my life, but from my mind and from my heart.

   F            A#           D#           F#     G#     
e|--------------------------------------------------|
B|--------------------------------------------------|
G|---------------------------8------------11-----13-|
D|-3------------8------------8----------------------|
A|-3------------8------------6------------9------11-|
E|-1------------6-----------------------------------|

F                    A#
Cuz when I see you I get that awkward feeling -
D#                          F#                 G#
I'd rather kill myself than see the way you're living without me.



[Riff]
   c#                  F#       G#
e|--------------------------------------------------|
B|----------6666----------------66-44----44---------|
G|-66666666------6666-----------------66------------|   x 2
D|---------------------44444444---------------------|
A|--------------------------------------------------|
E|--------------------------------------------------|



[Verse 2]
C#
Now I'm alone. You're moving on,
F#                    G#
But I still see you - I wish that you were gone.
C#
Cuz I'm depressed, and you don't care (stupid bitch!) - 
  F#                                 G#
I hope you're having fun with him. I hope he breaks your heart like you did mine.



[Chorus]
   C#                       F#           G#
e|--------------------------------------------------|
B|--------------------------11-----------13---------|
G|-11-----------------------11-----------13---------|
D|-11-----------------------11-----------13---------|
A|-11-----------------------9------------11---------|
E|-9------------------------------------------------|
C#               F#         G#
I spend too much time in my underwear.
    C#                 F#        G#
Now I can see see that you never really cared
 C#              F#           G#
About me, baby - you lost the chance to see
     C#                  F#            G#
What you missed. Has this been tearing you apart?



[Riff]
   c#                  F#       G#
e|--------------------------------------------------|
B|----------6666----------------66-44----44---------|
G|-66666666------6666-----------------66------------|   x 2
D|---------------------44444444---------------------|
A|--------------------------------------------------|
E|--------------------------------------------------|



[Chorus]
   C#                       F#           G#
e|--------------------------------------------------|
B|--------------------------11-----------13---------|
G|-11-----------------------11-----------13---------|
D|-11-----------------------11-----------13---------|
A|-11-----------------------9------------11---------|
E|-9------------------------------------------------|
C#               F#         G#
I spend too much time in my underwear.
    C#                 F#        G#
Now I can see see that you never really cared
 C#              F#           G#
About me, baby - you lost the chance to see
     C#                  F#            G#
What you missed. Has this been tearing you apart?



[Verse 3]
C#                        F#         G#
Ignore me, disown me. I'm lonely and ugly.
      C#                    F#              G#
Don't bother to call me - I don't need your pity



[Outro]
   C#                       F#           G#
e|-9------------------------------------------------|
B|--------------------------------------------------|
G|-6------------------------11-----------13---------|
D|--------------------------------------------------| x2
A|--------------------------9------------11---------|
E|--------------------------------------------------|

"Ignore me! Ignore me!      Ignore me!   Ignore me!"

            
            
Suggest correction
Creating personal tab
Creating personal tab
You can edit any tab online and save it as your Personal.

You can edit, replace or remove any tab part or add personal notes – all changes will be seen only by you.

Personal tabs can be accessed anytime from any device, even offline.
Learn more »
Give kudos to tab author, rate the tab!
1 2 3 4 5
comments
print report bad tab
guest
You may want to rate the tab now too:
select rating
Wanna post a correction for this tab? Suggest correction