Oops, an error
Loading. Please wait.

Its So Easy tab

58 views 1 this week
no commentswrite comment
1 2 3 4 5
2 more votes to show rating
add to favorites
×
Save as Personal and add changes to this tab that will be seen only by you. Learn more ›
×
You can save this tab as Personal to edit and correct it or add notes. All changes will be seen only by you. Learn more »
launch autoscroll
font size
0
reset
how to read this tab
guitar tuner
edit
Autoscroll
slow
fast
+/-
esc
set tempo
stop
About this tab version
As the author of this song, I know it to be correct. Was this info helpful? Yes No
IT'S SO EASY
From the 2006 release "You're Not Gonna Want To Hear This"

[Verse 1]
B                                                      G#
Take a breather, just relax. Put your feet up and kick back.
(A#) B                                                              G#
     Out of context - have a beer, cuz you're not seeing things too clear.
G#  
e|-4--|
B|-4--|
G|----|
D|----|
A|----|
E|----|



[Pre-chorus 1]

   E           F#          B           B/A#
e|--------------------------------------------------|
B|--------------------------------------------------|
G|-9-----------11-----------------------------------|
D|-9-----------11----------9-----------9------------|
A|-7-----------9-----------9-----------9------------|
E|-------------------------7-----------6------------|

Well, you say that it's so easy to come around and sing.

   E           F#          B     B/A#  G#    F#    E
e|----------------------------------------------------|
B|----------------------------------------------------|
G|-9-----------11----------------------------------1--|
D|-9-----------11----------9-----9-----6-----4-----2--|
A|-7-----------9-----------9-----9-----6-----4-----2--|
E|-------------------------7-----6-----4-----2-----0--|

And you say that it's so easy to play the way we play.

           F#
e|----------------------------------------------|
B|----------------------------------------------|
G|---------11-----------------------------------|
D|----------------------------------------------|
A|---------9------------------------------------|
E|----------------------------------------------|

But that's okay - cuz it doesn't matter anyway.



[Chorus 1]
B      E           F#             E
You're missing the point. (and it doesn't matter anyway)
B    E            F#               E
Convoluted and disjointed. (and it doesn't matter anyway)
B                              G#
We'll be drinking vodka, gin & tonic, and beer,
          E                      F#
And we're always having fun everytime that we're here.
       B                                 G#
If you think we've grown up then you can go and think again.
E                            F#
Maturity is great, but we're not that kind of band.



[Break 1]
   B           G#          E           F#
e|-------------------------------------------------------------|
B|-------------------------------------------------------------|
G|-------------------------9-----------11-11-13-13-15-15-16-16-|
D|-9-----------6-----------9-----------------------------------|
A|-9-----------6-----------7-----------9--9--11-11-13-13-14-14-|
E|-7-----------4-----------------------------------------------|

   B           G#          F#          E
e|-------------------------------------------------------------|
B|-------------------------------------------------------------|
G|-------------------------------------1-----------------------|
D|-9-----------6-----------4-----------2-----------------------|
A|-9-----------6-----------4-----------2-----------------------|
E|-7-----------4-----------2-----------0-----------------------|

e|-12~~~-------|
B|-------12~~~-|
G|-------------|
D|-------------|
A|-------------|
E|-------------|



[Verse 2]
B                                                                    G#
Just a little bit off-key.  It doesn't matter - it sounds alright to me.
B                                                               G#      G#  F#  (E)
And if it doesn't, I don't care.  That's why the Jägermeister's there.

[Over 2nd half of verse 2]
   B            G#              G#  F#  (E)
e|-------------------------------------------|
B|-12~~~~~~~~~~------------------------------|
G|--------------13~~~~~~----------------1----|
D|---------------------\6-------6---4---2----|
A|---------------------\6-------6---4---2----|
E|---------------------\4-------4---2---0----|



[Pre-chorus 2]

   E           F#          B           B/A#
e|--------------------------------------------------|
B|--------------------------------------------------|
G|-9-----------11-----------------------------------|
D|-9-----------11----------9-----------9------------|
A|-7-----------9-----------9-----------9------------|
E|-------------------------7-----------6------------|

Well, you say that it's so easy to come around and sing.

   E           F#          B     B/A#  G#    F#    E
e|----------------------------------------------------|
B|----------------------------------------------------|
G|-9-----------11----------------------------------1--|
D|-9-----------11----------9-----9-----6-----4-----2--|
A|-7-----------9-----------9-----9-----6-----4-----2--|
E|-------------------------7-----6-----4-----2-----0--|

And you say that it's so easy to play the way we play.

           F#
e|----------------------------------------------|
B|----------------------------------------------|
G|---------11-----------------------------------|
D|----------------------------------------------|
A|---------9------------------------------------|
E|----------------------------------------------|

But that's okay - cuz it doesn't matter anyway.



[Chorus 2]
B      E           F#             E
You're missing the point. (and it doesn't matter anyway)
B    E            F#               E
Convoluted and disjointed. (and it doesn't matter anyway)
B                              G#
We'll be drinking vodka, gin & tonic, and beer,
          E                      F#
And we're always having fun everytime that we're here.
       B                                 G#
If you think we've grown up then you can go and think again.
E                            F#
Maturity is great, but we're not that kind of band.



[Break 2]
   B           (A#) G#          (A#) B          (A#) G#
e|--------------------------------------------------------------|
B|--------------------------------------------------------------|
G|--------------------------------------------------------------|
D|-9-----------(8)--6-----------(8)--9----------(8)--6----------|
A|-9-----------(8)--6-----------(8)--9----------(8)--6----------|
E|-7-----------(6)--4-----------(6)--7----------(6)--4----------|

   (F#) E           F#
e|--------------------------------------------------------------|
B|--------------------------------------------------------------|
G|------1-----------11-11-9-13-13-13-15-15-15-16-16-16-16-16-16-|
D|-(4)--2-------------------------------------------------------|
A|-(4)--2-----------9--9--9-11-11-11-13-13-13-14-14-14-14-14-14-|
E|-(2)--0-------------------------------------------------------|



[Pre-chorus 3]

   E           F#          B           B/A#
e|--------------------------------------------------|
B|--------------------------------------------------|
G|-9-----------11-----------------------------------|
D|-9-----------11----------9-----------9------------|
A|-7-----------9-----------9-----------9------------|
E|-------------------------7-----------6------------|

Well, you say that it's so easy to come around and sing.

   E           F#          B           B/A#
e|--------------------------------------------------|
B|--------------------------------------------------|
G|-9-----------11-----------------------------------|
D|-9-----------11----------9-----------9------------|
A|-7-----------9-----------9-----------9------------|
E|-------------------------7-----------6------------|

And you say that it's so easy to play the way we play.

   E           F#          B     B/A#  G#    F#    E
e|----------------------------------------------------|
B|----------------------------------------------------|
G|-9-----------11----------------------------------1--|
D|-9-----------11----------9-----9-----6-----4-----2--|
A|-7-----------9-----------9-----9-----6-----4-----2--|
E|-------------------------7-----6-----4-----2-----0--|

   And you     say that you want us to just  go   away.

           F#                                  B   B
e|----------------------------------------------------|
B|----------------------------------------------------|
G|---------11-----------------------------------------|
D|---------------------------------------------9---9--|
A|---------9-----------------------------------9---9--|
E|---------------------------------------------7---7--|

But that's okay - cuz it doesn't matter anyway.


            
            
Suggest correction
Creating personal tab
Creating personal tab
You can edit any tab online and save it as your Personal.

You can edit, replace or remove any tab part or add personal notes – all changes will be seen only by you.

Personal tabs can be accessed anytime from any device, even offline.
Learn more »
Give kudos to tab author, rate the tab!
1 2 3 4 5
comments
print report bad tab
guest
You may want to rate the tab now too:
select rating
Wanna post a correction for this tab? Suggest correction