Oops, an error
Loading. Please wait.

Knee-Deep In Shits Creek tab

97 views 1 this week
no commentswrite comment
1 2 3 4 5
3 more votes to show rating
add to favorites
×
Save as Personal and add changes to this tab that will be seen only by you. Learn more ›
×
You can save this tab as Personal to edit and correct it or add notes. All changes will be seen only by you. Learn more »
launch autoscroll
font size
0
reset
how to read this tab
guitar tuner
edit
Autoscroll
slow
fast
+/-
esc
set tempo
stop
KNEE-DEEP IN SHIT'S CREEK
From the 2003 release "Wasted Time"

[Intro]
   B B   A B B  A  B A B   D D D
e|-----------------------------------|
B|-----------------------------------|
G|-4-4-----4-4-----4---4---7-7-7-----| x 4
D|-4-4---4-4-4---4-4-4-4---7-7-7-----|
A|-2-2---0-2-2---0-2-0-2---5-5-5-----|
E|-----------------------------------|

   B B   A B B  A  B A B   D D D
e|-777777777777777777777---10-10-10--|
B|-----------------------------------|
G|-444444444444444444444---7--7--7---| x 3
D|-----------------------------------|
A|-----------------------------------|
E|-----------------------------------|

   B B    A    B B    A B A    B     D   D   D
e|-10-10-10-10-12-12-12-13-13-13-13-13-13-13-13--|
B|-----------------------------------------------|
G|-7--7--7--7--9--9--9--10-10-10-10-10-10-10-10--|
D|-----------------------------------------------|
A|-----------------------------------------------|
E|-----------------------------------------------|



[Verse 1]
B
Sometimes I think that I can get away with
   G#                F#             G#                  A#
Anything that I want to - you never know what I'm gonna do.
B
My invincibility tends to work against me.
        G#         F#           G#                   A#
I can't always run away - I get stuck in the games I play.



[Pre-chorus 1]
   B   A   G#  G   E      F#            
e|----------------------------------------------------------------|
B|---------------------------------------11-11-11-11-11-11-11-11--|
G|-----------------1----------------------------------------------|
D|-9---7---6---5---2------4---------------------------------------|
A|-9---7---6---5---2------4--------------9--9--9--9--9--9--9--9---|
E|-7---5---4---3---0------2---------------------------------------|



[Chorus 1]
B B       E                 B B           E
You say I fucked up your life. You busted me one more time.
B         C#                    E                  F#
I say I'm sorry, but it doesn't change the way you feel about me.
B B        E            B B          E
I tried to get away with my selfish "you're no good" shit.
B             C#                 E                  F#
You called me on it - I said I'm honest, but you're not believing me.


[Verse 2]
B
I've got no excuses, My words are fucking useless.
           G#            F#             G#         A#
It doesn't matter what I say, cuz you ignore me anyway.
B
You ask me why I did it. I guess I'm just an idiot.
         G#                   F#               G#              A#
You're always wanting to know why I can't even look you in the eyes.



[Pre-chorus 2]
   B   A   G#  G   E      F#            
e|----------------------------------------------------------------|
B|---------------------------------------11-11-11-11-11-11-11-11--|
G|-----------------1----------------------------------------------|
D|-9---7---6---5---2------4---------------------------------------|
A|-9---7---6---5---2------4--------------9--9--9--9--9--9--9--9---|
E|-7---5---4---3---0------2---------------------------------------|



[Chorus 2]
B B       E                 B B           E
You say I fucked up your life. You busted me one more time.
B         C#                    E                  F#
I say I'm sorry, but it doesn't change the way you feel about me.
B B        E            B B          E
I tried to get away with my selfish "you're no good" shit.
B             C#                 E                  F#
You called me on it - I said I'm honest, but you're not believing me.



[Solo]
   B B    A      B B    A      B A    B      D  D  D
e|-12h9p7-12h9p7-12h9p7-12h9p7-12h9p7-12h9p7-10-10-10--|
B|-------------------------------------------10-10-10--|
G|-----------------------------------------------------|  x 3
D|-----------------------------------------------------|
A|-----------------------------------------------------|
E|-----------------------------------------------------|

   B B    A    B B    A B A    B     D   D   D
e|-10-10-10-10-12-12-12-13-13-13-13-13-13-13-13--|
B|-10-10-10-10-12-12-12-13-13-13-13-13-13-13-13--|
G|-----------------------------------------------|
D|-----------------------------------------------|
A|-----------------------------------------------|
E|-----------------------------------------------|



[Chorus 2]
B B       E                 B B           E
You say I fucked up your life. You busted me one more time.
B         C#                    E                  F#
I say I'm sorry, but it doesn't change the way you feel about me.
B B        E            B B          E
I tried to get away with my selfish "you're no good" shit.
B             C#                 E                  F#
You called me on it - I said I'm honest, but you're not believing me.



[Outro]
   B B   A B B  A  B A B   D D D
e|-----------------------------------|
B|-----------------------------------|
G|-4-4-----4-4-----4---4---7-7-7-----| x 3
D|-4-4---4-4-4---4-4-4-4---7-7-7-----|
A|-2-2---0-2-2---0-2-0-2---5-5-5-----|
E|-----------------------------------|

   B B    B B    B B    B B    D D D   B
e|----------------------------------------|
B|----------------------------------------|
G|-4-4----4-4----4-4----4-4----7-7--------|
D|-4-4----4-4----4-4----4-4----7-7-----9--|
A|-2-2----2-2----2-2----2-2----5-5-----9--|
E|-------------------------------------7--|
Suggest correction
Creating personal tab
Creating personal tab
You can edit any tab online and save it as your Personal.

You can edit, replace or remove any tab part or add personal notes – all changes will be seen only by you.

Personal tabs can be accessed anytime from any device, even offline.
Learn more »
Give kudos to tab author, rate the tab!
1 2 3 4 5
comments
print report bad tab
guest
You may want to rate the tab now too:
select rating
Wanna post a correction for this tab? Suggest correction