Oops, an error
Loading. Please wait.

Louder Tab

94 views 1 this week
no commentswrite comment
1 2 3 4 5
3 more votes to show rating
add to favorites
×
Save as Personal and add changes to this tab that will be seen only by you. Learn more ›
×
You can save this tab as Personal to edit and correct it or add notes. All changes will be seen only by you. Learn more »
save as personal
new!
launch autoscroll
font size
0
reset
how to read this tab
guitar tuner
Autoscroll
slow
fast
+/-
esc
set tempo
stop
LOUDER!
From the 2003 release "Wasted Time"

[Intro]
 D#    A#A#    C    G#  A#

 D#    A#A#    C    G#  A#

   D#    A#    C    G#  A#
e|---------------------------|
B|---------------------------|
G|-8-----10----12---8---10---|
D|---------------------------|
A|-6-----8-----10---6---8----|
E|---------------------------|


[Verse 1]
D#
Don't say we're getting tired just cuz we perspire.
A#               C  G#         A   D
Oh, you'll never know just how far we'll go.
D#                                                      A#
You say "Can you rock harder?" - I say I could, and I explode.
                C  G#         A   D
And then you'll know just how far we'll go.



[Pre-chorus 1]
G                                  C
And when the lights go down, don't disappoint me, stick around.
  G#                               A#
I wanna see you bounce around with me



[Chorus 1]
          D#              A#         C              G#         A#
Shout it (HEY!), Sing it (LOUDER!) - Let's make the night last longer.
         D#               A#
Come on (NOW!), bring it (OVER!)
C              G#          A#    D#    A#    C    G#
Let's make the music never end.
   A#    D#    A#    C    G#    A#    D#
It never ends.


[Verse 2]
D#                                                       A#
We're building up our fire - no time to quit, no time to slow.
            C  G#         A   D
We're gonna show just how far we'll go.
D#                                                      A#
You say "Can you rock harder?" - I say I could, and I explode.
                C  G#         A   D
And then you'll know just how far we'll go.



[Pre-chorus 1]
G                                  C
And when the lights go down, don't disappoint me, stick around.
  G#                               A#
I wanna see you bounce around with me



[Chorus 1]
          D#              A#         C              G#         A#
Shout it (HEY!), Sing it (LOUDER!) - Let's make the night last longer.
         D#               A#
Come on (NOW!), bring it (OVER!)
C              G#          A#    D#    A#    C    G#
Let's make the music never end.
   A#    D#    A#    C    G#    A#    D#
It never ends.



[Solo]

   D#        A#        C        G#    A#    
e|---------------------------------------------------|
B|-8---------10--------12-------13-12-13-10----------|
G|---------------------------------------------------|  x 2
D|---------------------------------------------------|
A|-6---------8---------10-------11-10-11-8-----------|
E|---------------------------------------------------|

   D#          A#          C           G#    A#    
e|-15-15-15-15-15-15-15-15-18-18-18-18-15-15-18-18---|
B|---------------------------------------------------|
G|-12-12-12-12-12-12-12-12-15-15-15-15-12-12-18-18---|
D|---------------------------------------------------|
A|---------------------------------------------------|
E|---------------------------------------------------|

   D#          A#          C           G#    A#    
e|-15-15-15-15-15-15-15-15-18-18-18-18-20-20-20-20---|
B|---------------------------------------------------|
G|-12-12-12-12-12-12-12-12-15-15-15-15-17-17-17-17---|
D|---------------------------------------------------|
A|---------------------------------------------------|
E|---------------------------------------------------|



[Pre-chorus 1]
G                                  C
And when the lights go down, don't disappoint me, stick around.
  G#                               A#
I wanna see you bounce around with me



[Chorus 1]
          D#              A#         C              G#         A#
Shout it (HEY!), Sing it (LOUDER!) - Let's make the night last longer.
         D#               A#
Come on (NOW!), bring it (OVER!)
C              G#          A#    D#    A#    C    G#
Let's make the music never end.
   A#    D#    A#    C    G#    A#    D#
It never ends.



[Outro]
   D#    A#    C    G#  A#
e|---------------------------|
B|---------------------------|
G|-8-----10----12---8---10---| x2
D|---------------------------|
A|-6-----8-----10---6---8----|
E|---------------------------|
Suggest correction
Give kudos to tab author, rate the tab!
1 2 3 4 5
comments
print report bad tab
guest
You may want to rate the tab now too:
select rating
Wanna post a correction for this tab? Suggest correction