Oops, an error
Loading. Please wait.

New Life Tab

68 views 1 this week
no commentswrite comment
1 2 3 4 5
3 more votes to show rating
add to favorites
launch autoscroll
font size
0
reset
how to read this tab
guitar tuner
×
Best way to learn
"New Life"
Autoscroll
slow
fast
+/-
esc
set tempo
stop
NEW LIFE
From the 2004 release "The Sticky Album"

[Chorus 1]
    G               C                    G                  C               B
Run away, cuz it'll solve your problems. You're too weak to handle your own drama.
                                C          D
Don't let the door hit your ass on the way out.
         G                  C                        G             C               B
And what makes you think we want you back? You're as stable as a recurring heart attack.
                              C                   D                 G
Emotions back and forth - I'm getting bored. Have fun with your new life.

[Riff over Chorus]
   G        C        G        C        B               C       D
e|-----77-------77-------77---------------------------------------------|
B|----------------------------------------------------------------------|
G|---77--77-5577--77---77--77-55775577-4-4-4-4-4-4-4-4-5-5-5-5-7-7-7-7--| x 2
D|-55----------------55-------------------------------------------------|
A|----------------------------------------------------------------------|
E|----------------------------------------------------------------------|



[Break 1]
   G                 C         D
e|-------------------------------------------|
B|-------------------------------------------|
G|-12----14----16----5---------7-------------| x 2
D|-------------------------------------------|
A|-10----12----14----3---------5-------------|
E|-------------------------------------------|



[Verse 1]
   G                        C            D                 G
e|------------------------------------------------------------|
B|------------------------------------------------------------|
G|--------------------------5------------7--------------------|
D|-5------------------0h2p0-5------------7-----------------5--|
A|-5------------------------3------------5-----------------5--|
E|-3-------------------------------------------------------5--|

   I'm done with caring, no matter what everyone else will say.

                          C                    D         B
e|----------------------------------------------------------|
B|----------------------------------------------------------|
G|------------------------5--------------------7---------4--|
D|------------------0h2p0-5--------------------7---------4--|
A|------------------------3--------------------5---------2--|
E|----------------------------------------------------------|

   They think I'm full of shit, but it doesn't matter anyway.

  (B)                         G         B                                 C                   D
e|------------------------------------------------------------------------------------------------------|
B|------------------------------------------------------------------------------------------------------|
G|-4------------------------------------4---------------------------------5-------------------7---------|
D|-4--------------------------5---------4---------------------------------5-------------------7---------|
A|-2--------------------------5---------2---------------------------------3-------------------5---------|
E|----------------------------3-------------------------------------------------------------------------|

  (Way) to go you've isolated everyone. At least you're having fun. We're done. Your life's a loaded gun.



[Chorus 2]
    G               C                    G                  C               B
Run away, cuz it'll solve your problems. You're too weak to handle your own drama.
                                C          D
Don't let the door hit your ass on the way out.
         G                  C                        G             C               B
And what makes you think we want you back? You're as stable as a recurring heart attack.
                              C                   D                 G
Emotions back and forth - I'm getting bored. Have fun with your new life.

[Riff over Chorus]
   G        C        G        C        B               C       D
e|-----77-------77-------77---------------------------------------------|
B|----------------------------------------------------------------------|
G|---77--77-5577--77---77--77-55775577-4-4-4-4-4-4-4-4-5-5-5-5-7-7-7-7--| x 2
D|-55----------------55-------------------------------------------------|
A|----------------------------------------------------------------------|
E|----------------------------------------------------------------------|



[Break 2]
   G                 C         D
e|-------------------------------------------|
B|-------------------------------------------|
G|-12----14----16----5---------7-------------| x 2
D|-------------------------------------------|
A|-10----12----14----3---------5-------------|
E|-------------------------------------------|



[Verse 2]
   G                    C               D                G
e|-----------------------------------------------------------|
B|-----------------------------------------------------------|
G|----------------------5---------------7-------------------|
D|-5--------------0h2p0-5---------------7----------------5--|
A|-5--------------------3---------------5----------------5--|
E|-3-----------------------------------------------------5--|

   I've wasted too much time pissing my days and nights away

                            C                 D        B
e|--------------------------------------------------------|
B|--------------------------------------------------------|
G|--------------------------5-----------------7--------4--|
D|--------------------0h2p0-5-----------------7--------4--|
A|--------------------------3-----------------5--------2--|
E|--------------------------------------------------------|

   while you see-saw up and down with your mental anxiety.

  (B)                             G         B                            C                D
e|----------------------------------------------------------------------------------------------------|
B|----------------------------------------------------------------------------------------------------|
G|-4----------------------------------------4----------------------------5----------------7-----------|
D|-4------------------------------5---------4----------------------------5----------------7-----------|
A|-2------------------------------5---------2----------------------------3----------------5-----------|
E|--------------------------------3-------------------------------------------------------------------|

   Here let me help you tear your guts out. How do you stand so fine without a spine? You blow my mind.



[Chorus 3]
    G               C                    G                  C               B
Run away, cuz it'll solve your problems. You're too weak to handle your own drama.
                                C          D
Don't let the door hit your ass on the way out.
         G                  C                        G             C               B
And what makes you think we want you back? You're as stable as a recurring heart attack.
                              C                   D                 N.C.
Emotions back and forth - I'm getting bored. Have fun with your new life.

[Riff over Chorus]
   G        C        G        C        B               C       D
e|-----77-------77-------77---------------------------------------------|
B|----------------------------------------------------------------------|
G|---77--77-5577--77---77--77-55775577-4-4-4-4-4-4-4-4-5-5-5-5-7-7-7-7--| x 2
D|-55----------------55-------------------------------------------------|
A|----------------------------------------------------------------------|
E|----------------------------------------------------------------------|



[Bridge]
          B            B B     G        F#
e|-----------------------------------------------|
B|-----------------------------------------------|
G|-----------------------------------------------| x 2
D|-x-x--x-9/----x-x--x-9-9/----5--------4--------|
A|-x-x--x-9/----x-x--x-9-9/----5--------4--------|
E|-x-x--x-7/----x-x--x-7-7/----3--------2--------|

   C                 D
e|-8---8---8-8---8---10---10---10-10---10--------|
B|-----------------------------------------------|
G|---5---5-----5---5----7----7-------7----7------|
D|-----------------------------------------------|
A|-----------------------------------------------|
E|-----------------------------------------------|



[Chorus 3]
    G               C                    G                  C               B
Run away, cuz it'll solve your problems. You're too weak to handle your own drama.
                                C              D
Don't let the door hit your ass on the way out of this place.
         G                  C                        G             C               B
And what makes you think we want you back? You're as stable as a recurring heart attack.
                              C                   D                 G
Emotions back and forth - I'm getting bored. Have fun with your new life.

[Riff over Chorus]
   G        C        G        C        B               C       D
e|-----77-------77-------77---------------------------------------------|
B|----------------------------------------------------------------------|
G|---77--77-5577--77---77--77-55775577-4-4-4-4-4-4-4-4-5-5-5-5-7-7-7-7--| x 2
D|-55----------------55-------------------------------------------------|
A|----------------------------------------------------------------------|
E|----------------------------------------------------------------------|



[Outro]
   G                 C         D                 G
e|---------------------------------------------------------|
B|---------------------------------------------------------|
G|-------------------5---------7---------------------------|
D|-5-----------------5---------7-----------------5---------|
A|-5-----------------3---------5-----------------5---------|
E|-3---------------------------------------------3---------|

                          Have fun with your new life.
   C         D                 G
e|---------------------------------------------|
B|---------------------------------------------|
G|-5---------7---------------------------------|
D|-5---------7-----------------5---------------|
A|-3---------5-----------------5---------------|
E|-----------------------------3---------------|

        Have fun with your new life.
   C         D                 G
e|---------------------------------------------|
B|---------------------------------------------|
G|-5---------7-----------------12----14----16--|
D|-3---------7---------------------------------|
A|-3---------5-----------------10----12----14--|
E|---------------------------------------------|

        Have fun with your new life.
   C         D                 G
e|---------------------------------------------|
B|---------------------------------------------|
G|-5---------7-----------------12--------------|
D|---------------------------------------------|
A|-3---------5-----------------10--------------|
E|---------------------------------------------|

        Have fun with your new life.
Suggest correction
Give kudos to tab author, rate the tab!
1 2 3 4 5
comments
print report bad tab
guest
You may want to rate the tab now too:
select rating
Wanna post a correction for this tab? Suggest correction