Oops, an error
Loading. Please wait.

No One Knows Tab

149 views 3 this week
no commentswrite comment
1 2 3 4 5
3 more votes to show rating
add to favorites
launch autoscroll
font size
0
reset
how to read this tab
guitar tuner
Autoscroll
slow
fast
+/-
esc
set tempo
stop
NO ONE KNOWS
From the 2001 release "Nuclear Family"

[Verse 1]
           D            B               E                 A
e|----------------------------------------------------------------------|
B|----------------------------------------------------------------------|
G|----------------7-------------------------------9---------------------|
D|---------------------7-----9-------------------------9-------7--------|
A|---------5-------------------9---------7-------------------7---7------|
E|-----------------------7-----------7--------------------5-------------|

Here I go again - Once again I write the same old type of song.

           D            B               E               A
e|----------------------------------------------------------------------|
B|----------------------------------------------------------------------|
G|----------------7----------------------------9------------------------|
D|---------------------7-----9----------------------9-------7-----------|
A|---------5-------------------9---------7----------------7---7---------|
E|-----------------------7-----------7-----------------5----------------|

With the same old poppy lyrics, so you all can sing along. 
             D             B                       G              A                 (D)
e|---------------------------------------------------------------------------------------|
B|---------------------------------------------------------------------------------------|
G|------------------7--------------------------------------------------------------------|
D|-----------------------7-------9-------------------------5--------------7--------------|
A|-----------5-------------------------9----------------5-----5---------7-----7-----(5)--|
E|--------------------------7-----------------7----3--------------5----------------------|

I think I'll write about a girl, since that's what lots of people write about these days. 

   D      B        E      A
e|------------------------5----------|
B|------------------------5----------|
G|----7------------9--9---6----------|
D|-----7----9------9---9--7---7------|
A|-5----------9----7------7-7---7----|
E|--------7-----7---------5----------|



[Verse 2]
        D               B                 E                A
e|----------------------7----------------------------------5------------|
B|------7---------------7----------------------------------5------------|
G|------7--------7------8-----------------9-------9--------6------------|
D|------7------------7--9------9----------9------------9---7----7-------|
A|------5---------------9----------9------7----------------7--7---7-----|
E|----------------------7---------------7------------------5------------|

She was cute and not so smart, and right away she stole my heart. 

     D             B                   E              A
e|-----------------7----------------------------------5-----------------|
B|---7-------------7-------------------9--------------5-----------------|
G|---7--------7----8-------------------9--------9-----6-----------------|
D|---7-----------7-9-----9-------------9-----------9--7----7------------|
A|---5-------------9---------9---------7--------------7--7---7----------|
E|-----------------7--------------7-------------------5-----------------|

So I took her to a show, and like they say, the story goes. 
         D              B                G                A                    (D)
e|----------------------7----------------3------------------5----------------------------|
B|-------7--------------7----------------3------------------5----------------------------|
G|-------7-------7------8----------------4------------------6----------------------------|
D|-------7-----------7--9------9---------5---------5--------7--------7-------------------|
A|-------5--------------9--------9-------5-----5-------5----7----7-------7-----(5)-------|
E|----------------------7------------7---3------------------5----------------------------|

And then we both got tattoos - I got her name, she got mine too, and now she's gone.

   D      B        E      A
e|--------7---------------5~~~~------|
B|-7------7--------9~~----5~~~~------|
G|-7--7---8--------9~~----6~~~~------|
D|-7---7--9-9------9~~----7~~~~------|
A|-5------9---9----7~~----7~~~~------|
E|--------7-----7---------5~~~~------|



[Break 1]

   D     B     E     G     A
e|-------------------------------|
B|-------------------------------|
G|-7-----------9-----12----14----| x2
D|-7-----9-----9-----------------|
A|-5-----9-----7-----10----12----|
E|-------7-----------------------|


[Pre-chorus 1]
            D                                B
e|-------------------------------------------------------------------|
B|-------------------------------------------------------------------|
G|----------7--------------------------------------------------------|
D|----------7--------------------------------9-----------------------|
A|----------5--------------------------------9-----------------------|
E|-------------------------------------------7-----------------------|

I'm singing all these words before about you walking through my door,

            E                           G                   A
e|-------------------------------------------------------------------|
B|-------------------------------------------------------------------|
G|----------9---------------------------12------------------14-------|
D|----------9--------------------------------------------------------|
A|----------7---------------------------10------------------12-------|
E|-------------------------------------------------------------------|

And now I'm singing it again so you can get it through your head.

         D                                     B
e|-------------------------------------------------------------------|
B|-------------------------------------------------------------------|
G|-------7-----------------------------------------------------------|
D|-------7-------------------------------------9---------------------|
A|-------5-------------------------------------9---------------------|
E|---------------------------------------------7---------------------|

Your ten-minutes come and gone - Why won't you get out of my songs?
              E                                   G                      A
e|---------------------------------------------------------------------------|
B|---------------------------------------------------------------------------|
G|------------9-----------------------------------12---------------------14--|
D|------------9--------------------------------------------------------------|
A|------------7-----------------------------------10---------------------12--|
E|---------------------------------------------------------------------------|

Just one more chorus here for you - Tell all your friends your wish came true.



[Chorus 1]
           D             B                G                     A
So here we go, Sing with me. You walked into my life, then ran away from me.
          D               B                  G                              A
You never came, You never will. I won't keep waiting around, but I'll think of you still.



[Break 2]
   D               B               G               A
e|-----------------------------------------------------------------|
B|-----------------------------------------------------------------|
G|-7-----9--12-11--9-----12--11-9--7-----9--12-11--9-----12--11-9--| x2
D|-----------------------------------------------------------------|
A|-5-----7--10-9---7-----10--9--7--5-----7--10-9---7-----10--9--7--|
E|-----------------------------------------------------------------|

   D     B     E     G     A
e|-------------------------------|
B|-------------------------------|
G|-7-----------9-----12----14----| x2
D|-7-----9-----9-----------------|
A|-5-----9-----7-----10----12----|
E|-------7-----------------------|


[Pre-chorus 2]
            D                                B
e|-------------------------------------------------------------------|
B|-------------------------------------------------------------------|
G|----------7--------------------------------------------------------|
D|----------7--------------------------------9-----------------------|
A|----------5--------------------------------9-----------------------|
E|-------------------------------------------7-----------------------|

I'm singing all these words before about you walking through my door,

            E                           G                   A
e|-------------------------------------------------------------------|
B|-------------------------------------------------------------------|
G|----------9---------------------------12------------------14-------|
D|----------9--------------------------------------------------------|
A|----------7---------------------------10------------------12-------|
E|-------------------------------------------------------------------|

And now I'm singing it again so you can get it through your head.

         D                                     B
e|-------------------------------------------------------------------|
B|-------------------------------------------------------------------|
G|-------7-----------------------------------------------------------|
D|-------7-------------------------------------9---------------------|
A|-------5-------------------------------------9---------------------|
E|---------------------------------------------7---------------------|

Your ten-minutes come and gone - Why won't you get out of my songs?
              E                                   G                      A
e|---------------------------------------------------------------------------|
B|---------------------------------------------------------------------------|
G|------------9-----------------------------------12---------------------14--|
D|------------9--------------------------------------------------------------|
A|------------7-----------------------------------10---------------------12--|
E|---------------------------------------------------------------------------|

Just one more chorus here for you - Tell all your friends your wish came true.



[Chorus 2]
           D             B                G                     A
So here we go, Sing with me. You walked into my life, then ran away from me.
          D               B                  G                              A
You never came, You never will. I won't keep waiting around, but I'll think of you still.



[Break 3]
   D               B               G               A
e|----------------------------------------------------------------------|
B|----------------------------------------------------------------------|
G|-7-----9--12-11--9-----12--11-9--7-----9--12-11--9-----12--11-9-------|
D|----------------------------------------------------------------------|
A|-5-----7--10-9---7-----10--9--7--5-----7--10-9---7-----10--9--7-------|
E|----------------------------------------------------------------------|

   D               B               G               A
e|----------------------------------------------------------------------|
B|----------------------------------------------------------------------|
G|-7-----9--12-11--9-----12--11-9--7-----9--12-11--9---11---12---14-----|
D|----------------------------------------------------------------------|
A|-5-----7--10-9---7-----10--9--7--5-----7--10-9---7---9----10---12-----|
E|----------------------------------------------------------------------|

   D       B        E       A         D      B        E       A
e|----------------------------------------------------------------------|
B|-----------------------------------------------------9~~~~--14h15h14--|
G|----7----------------9-----------------7-------------9~~~~--14--------|
D|------7----9-----------9------7----------7----9------9~~~~--14--------|
A|-5-----------9----7---------7---7---5-----------9----7~~~~------------|
E|---------7-----7----------5-----------------7-----7-------------------|



[Chorus 3]
           D             B                G                     A
So here we go, Sing with me. You walked into my life, then ran away from me.
          D               B                  G                              A
You never came, You never will. I won't keep waiting around, but I'll think of you still.
             D             B                    G                           A
And now it's time to sing along, cuz we're your favorite band, and you know all our songs.
            D                 B                    G                     A        D  C#  D
Come to our shows and buy our clothes, and you can be like us because we all know no one knows.
Suggest correction
Give kudos to tab author, rate the tab!
1 2 3 4 5
comments
print report bad tab
guest
You may want to rate the tab now too:
select rating
Wanna post a correction for this tab? Suggest correction