Oops, an error
Loading. Please wait.

One Last Thing tab

68 views 1 this week
no commentswrite comment
1 2 3 4 5
3 more votes to show rating
add to favorites
×
Save as Personal and add changes to this tab that will be seen only by you. Learn more ›
×
You can save this tab as Personal to edit and correct it or add notes. All changes will be seen only by you. Learn more »
launch autoscroll
font size
0
reset
how to read this tab
guitar tuner
edit
Autoscroll
slow
fast
+/-
esc
set tempo
stop
ONE LAST THING
From the 2004 release "The Sticky Album"

[Intro]
   G          E          C          D          G          E          C          D
e|--------------------------------------------------------------------------------------------|
B|--------------------------------------------------------------------------------------------|
G|------------9----------5----------7---------------------9----------5----------7--9--11--12--|
D|-5----------9----------5----------7----------5----------9----------5------------------------|
A|-5----------7----------3----------5----------5----------7----------3----------5--7--9---10--|
E|-3-------------------------------------------3----------------------------------------------|

   C          D          G    F#    E    D  E  D    C          D          G
e|--------------------------------------------------------------------------------------------|
B|--------------------------------------------------------------------------------------------|
G|-5----------7----------12---11----9----7--9--7----5----------7-----------------12-------12--|
D|-5----------7-------------------------------------5----------7----------5----------5--------|
A|-3----------5----------10---9-----7----5--7--5----3----------5----------5------10--5----10--|
E|------------------------------------------------------------------------3----------3--------|



[Verse 1]
G                 B                         E         C           D
I'm not that good looking - I've heard it before, but that didn't stop me.
G                  B                         E      C            D
You scraped out my heart and threw it on the floor. You wouldn't give me
    C                D                       G              E               C
The time of day or a look my way...just some decency as you walked all over me.

  (D)
e|--------------------|
B|--------------------|
G|--------------------|
D|--------------------|
A|-5--3--2--3-2-0-2---|
E|--------------------|



[Chorus 1]
   G          C                  D
e|---------------------------------------------------------------------------------------------|
B|---------------------------------------------------------------------------------------------|
G|---------------5------------------7----------------------------------------------------------|
D|-5-------------5------------------7----------------------------------------------------------|
A|-5-------------3------------------5----------------------------------------------------------|
E|-3-------------------------------------------------------------------------------------------|

   Hey - there's nothing more I can say. 

              C               G        C               D
e|---------------------------------------------------------------------------------------------|
B|---------------------------------------------------------------------------------------------|
G|------------5------------------------5---------------7--9--11--12----9--11--12---------------|
D|------------5---------------5--------5-------------------------------------------------------|
A|------------3---------------5--------3---------------5--7--9---10----7--9---10---------------|
E|----------------------------3----------------------------------------------------------------|

   I've tried everything to impress you, but you don't care.

   C             D              G  F#           E      D  E  D 
e|---------------------------------------------------------------------------------------------|
B|---------------------------------------------------------------------------------------------|
G|-5------------7---------------12-11-----------9------7--9--7---------------------------------|
D|-5------------7------------------------------------------------------------------------------|
A|-3------------5---------------10-9------------7------5--7--5---------------------------------|
E|---------------------------------------------------------------------------------------------|

   So, one last thing before we go our separate ways

   C          D          G
e|---------------------------------------------------------------------------------------------|
B|---------------------------------------------------------------------------------------------|
G|-5----------------7------------------------------12\----------------------12\----------------|
D|-5----------------7-----------------5--------------------5-----------------------------------|
A|-3----------------5-----------------5------------10\-----5----------------10\----------------|
E|------------------------------------3--------------------3-----------------------------------|

Why don't you go fuck yourself for me.



[Verse 2]
G            B                            E            C          D
I bought you drinks when we went out with friends, and you didn't thank me.
G               B                               E        C              D
I've driven you home when you're drunk with the spins. I still couldn't get
    C                   D                             G                   E                           C
One single touch, not a kiss on the cheek. You'd just stumble away and go puke in the sink - It's not fair.

  (D)
e|--------------------|
B|--------------------|
G|--------------------|
D|--------------------|
A|-5--3--2--3-2-0-2---|
E|--------------------|



[Chorus 2]
   G          C                  D
e|---------------------------------------------------------------------------------------------|
B|---------------------------------------------------------------------------------------------|
G|---------------5------------------7----------------------------------------------------------|
D|-5-------------5------------------7----------------------------------------------------------|
A|-5-------------3------------------5----------------------------------------------------------|
E|-3-------------------------------------------------------------------------------------------|

   Hey - there's nothing more I can say. 

              C               G        C               D
e|---------------------------------------------------------------------------------------------|
B|---------------------------------------------------------------------------------------------|
G|------------5------------------------5---------------7--9--11--12----9--11--12---------------|
D|------------5---------------5--------5-------------------------------------------------------|
A|------------3---------------5--------3---------------5--7--9---10----7--9---10---------------|
E|----------------------------3----------------------------------------------------------------|

   I've tried everything to impress you, but you don't care.

   C             D              G  F#           E      D  E  D 
e|---------------------------------------------------------------------------------------------|
B|---------------------------------------------------------------------------------------------|
G|-5------------7---------------12-11-----------9------7--9--7---------------------------------|
D|-5------------7------------------------------------------------------------------------------|
A|-3------------5---------------10-9------------7------5--7--5---------------------------------|
E|---------------------------------------------------------------------------------------------|

   So, one last thing before we go our separate ways

   C          D          G
e|---------------------------------------------------------------------------------------------|
B|---------------------------------------------------------------------------------------------|
G|-5----------------7------------------------------12\----------------------12\----------------|
D|-5----------------7-----------------5--------------------5-----------------------------------|
A|-3----------------5-----------------5------------10\-----5----------------10\----------------|
E|------------------------------------3--------------------3-----------------------------------|

Why don't you go fuck yourself for me.



[Verse 3]
N.C.
I've got lots of talents and I tried to show you all that I'm good for.
G                 B                          E         C          D
I'm smart and I'm funny, and I wrote you the song that you always asked for.
  C                      D                       G                      E                    C
I poured my heart out, I played it there, but my music's not getting me anywhere - you don't care.

  (D)
e|--------------------|
B|--------------------|
G|--------------------|
D|--------------------|
A|-5--3--2--3-2-0-2---|
E|--------------------|



[Chorus 3]
   G          C                  D
e|---------------------------------------------------------------------------------------------|
B|---------------------------------------------------------------------------------------------|
G|---------------5------------------7----------------------------------------------------------|
D|-5-------------5------------------7----------------------------------------------------------|
A|-5-------------3------------------5----------------------------------------------------------|
E|-3-------------------------------------------------------------------------------------------|

   Hey - there's nothing more I can say. 

              C               G        C               D
e|---------------------------------------------------------------------------------------------|
B|---------------------------------------------------------------------------------------------|
G|------------5------------------------5---------------7--9--11--12----9--11--12---------------|
D|------------5---------------5--------5-------------------------------------------------------|
A|------------3---------------5--------3---------------5--7--9---10----7--9---10---------------|
E|----------------------------3----------------------------------------------------------------|

   I've tried everything to impress you, but you don't care.

   C             D              G  F#           E      D  E  D 
e|---------------------------------------------------------------------------------------------|
B|---------------------------------------------------------------------------------------------|
G|-5------------7---------------12-11-----------9------7--9--7---------------------------------|
D|-5------------7------------------------------------------------------------------------------|
A|-3------------5---------------10-9------------7------5--7--5---------------------------------|
E|---------------------------------------------------------------------------------------------|

   So, one last thing before we go our separate ways

   C                D                 G              E
e|---------------------------------------------------------------------------------------------|
B|---------------------------------------------------------------------------------------------|
G|-5----------------7--------------------------------1-----------------------------------------|
D|-5----------------7-----------------5--------------2-----------------------------------------|
A|-3----------------5-----------------5--------------2-----------------------------------------|
E|------------------------------------3--------------0-----------------------------------------|

   Why don't you go fuck yourself for me.



[Outro]
 C                  D                 G              E
e|-----------------------------------------------------------|
B|------------------------------------8~~~~-8--8--7--5~~~~~--|
G|-5----------------7----------------------------------------|
D|-5----------------7----------------------------------------|
A|-3----------------5----------------------------------------|
E|-----------------------------------------------------------|

   Why don't you go fuck yourself for me.

 C                  D                 G
e|-----------------------------------------------------------|
B|-----------------------------------------------------------|
G|-5----------------7-----------------12---------------------|
D|-5----------------7----------------------------------------|
A|-3----------------5-----------------10---------------------|
E|-----------------------------------------------------------|

   Why don't you go fuck yourself and die.

            
            
Suggest correction
Creating personal tab
Creating personal tab
You can edit any tab online and save it as your Personal.

You can edit, replace or remove any tab part or add personal notes – all changes will be seen only by you.

Personal tabs can be accessed anytime from any device, even offline.
Learn more »
Give kudos to tab author, rate the tab!
1 2 3 4 5
comments
print report bad tab
guest
You may want to rate the tab now too:
select rating
Wanna post a correction for this tab? Suggest correction