Oops, an error
Loading. Please wait.

Payback Tab

61 views 1 this week
no commentswrite comment
1 2 3 4 5
3 more votes to show rating
add to favorites
launch autoscroll
font size
0
reset
how to read this tab
guitar tuner
×
Best way to learn
"Payback"
Autoscroll
slow
fast
+/-
esc
set tempo
stop
PAYBACK
From the 2001 release "Nuclear Family"

[Intro]
   B           F#           G#           E
e|---------------------------------------------------|
B|-4444444444444444444444444444444444444-4-2---2-----|
G|-4444444444444444444444444444444444444-----4-------| x2
D|---------------------------------------------------|
A|---------------------------------------------------|
E|---------------------------------------------------|

   B           F#           G#           E
e|---------------------------------------------------|
B|---------------------------------------------------|
G|-4~~-----------------------------------------------| x2
D|-4~~---------4~~----------6~~----------2~~---------|
A|-2~~---------4~~----------6~~----------2~~---------|
E|-------------2~~----------4~~----------0~~---------|



[Verse 1]
B                             F#
I saw you across the room, and I know you saw me too, and
G#                              E              B
We didn't say nothing cuz there wasn't much to say.
(B)                                F#
I thought I had it figured out, and I thought I knew it from the start, but
G#                           E               G#
You were a goddess sent from hell to torture me.



[Break 1]
   B           F#           G#           E
e|---------------------------------------------------|
B|-4444444444444444444444444444444444444-4-2---2-----|
G|-4444444444444444444444444444444444444-----4-------| x2
D|---------------------------------------------------|
A|---------------------------------------------------|
E|---------------------------------------------------|



[Verse 2]
B                           F#
I looked into your eyes, and all I saw was lies, and 
G#                           E                    B
I started thinking there was something wrong with me.
(B)                         F#
And then I came to know that under those pretty clothes was
G#                         E                 G#
Just an incarnation of the bitch high-school elite.



[Chorus 1]
G#              F#                              B
But nothing has changed. Why did I come to this place?
                   E                              G#
So I could be left alone? So you could step on my face?
                        F#
I guess that's why they say we'll be better off this way.



[Break 2]
   B           F#           G#           E
e|---------------------------------------------------|
B|-4444444444444444444444444444444444444-4-2---2-----|
G|-4444444444444444444444444444444444444-----4-------| x2
D|---------------------------------------------------|
A|---------------------------------------------------|
E|---------------------------------------------------|



[Verse 3]
B                         F#
And now I've grown up, and I see you've grown more, and 
G#                       E                                    B
I saw you just the other day, you're looking different than before.
(B)                       F#
We said a word or two then you walked away, and I knew
G#                               E                  G#
That you weren't stupid you knew I'm the one that's right.



[Chorus 2]
G#              F#                              B
But nothing has changed. Why did I come to this place?
                   E                              G#
So I could be left alone? So you could step on my face?
                        F#
I guess that's why they say we'll be better off this way.



[Bridge]
  B           F#           G#           E
e|-------------------------4----------------0-----0-|
B|-4------------------4--------4----------0-----0---|
G|-----4----------3----------------4----1-----1-----| x2
D|---------4--4-------------------------------------|
A|--------------------------------------------------|
E|--------------------------------------------------|



[Chorus 3]
G#              F#                              B
But nothing has changed. Why did I come to this place?
                   E                              G#
So I could be left alone? So you could step on my face?
                        F#
I guess that's why they say we'll be better off this way.



[Outro]
   B           F#           G#           E
e|---------------------------------------------------|
B|-4444444444444444444444444444444444444-4-2---2-----|
G|-4444444444444444444444444444444444444-----4-------| x2
D|---------------------------------------------------|
A|---------------------------------------------------|
E|---------------------------------------------------|

                                        We'll be better off this way
Suggest correction
Give kudos to tab author, rate the tab!
1 2 3 4 5
comments
print report bad tab
guest
You may want to rate the tab now too:
select rating
Wanna post a correction for this tab? Suggest correction