Oops, an error
Loading. Please wait.

Ripping Hammer Tab

48 views 3 this week
no commentswrite comment
1 2 3 4 5
3 more votes to show rating
add to favorites
×
Save as Personal and add changes to this tab that will be seen only by you. Learn more ›
×
You can save this tab as Personal to edit and correct it or add notes. All changes will be seen only by you. Learn more »
save as personal
new!
launch autoscroll
font size
0
reset
how to read this tab
guitar tuner
Autoscroll
slow
fast
+/-
esc
set tempo
stop
RIPPING HAMMER
From the 2004 release "The Sticky Album"

[Verse 1]
   E                               G
e|------------------------------------------------------------------------------|
B|------------------------------------------------------------------------------|
G|------------------------------------------------------------------------------|
D|-2-------------------------------5--------------------------------------------|
A|-2-------------------------------5--------------------------------------------|
E|-0-------------------------------3--------------------------------------------|

   Indecision falling even faster. Words come out - yeah, he's a fucking bastard.

   A                              C       D    
e|--------------------------------8-------10------------------------------------|
B|------------------------------------------------------------------------------|
G|--------------------------------5-------7-------------------------------------|
D|-7----------------------------------------------------------------------------|
A|-7----------------------------------------------------------------------------|
E|-5----------------------------------------------------------------------------|

   I did everything that I could. I tried harder than I should.

   E                                  G
e|------------------------------------------------------------------------------|
B|------------------------------------------------------------------------------|
G|------------------------------------------------------------------------------|
D|-2----------------------------------5-----------------------------------------|
A|-2----------------------------------5-----------------------------------------|
E|-0----------------------------------3-----------------------------------------|

   Two choices understanding reasons. Indecision feels like treason.

   A                                     C                D               C
e|---------------------------------------8----------------10--------------------|
B|------------------------------------------------------------------------------|
G|---------------------------------------5----------------7---------------5-----|
D|-7----------------------------------------------------------------------5-----|
A|-7----------------------------------------------------------------------3-----|
E|-5----------------------------------------------------------------------------|

   Close your eyes and wish it all away. In the end, will life remain the same...



[Pre-chorus 1]
(C)          D          G                  B               C             D
(Same) as it was before? Knock me down and push me out the door. Now I'm singing...



[Chorus 1]
C                         G
So long - baby, I'm gone. I'll write you one last song.
A                              C    D
When I wake will you be here tomorrow?
C                         G
So long - baby, I'm gone. I'll write you one last song.
A                              C    D
When I wake will you be here tomorrow?



[Solo]
   E                               G
e|-------------------------------------------------------------------------|
B|-8-8-8-8-7-7-7-7-5-5-5-5---------5-5-5-5---------------------------------|
G|-------------------------7-7-7-7---------7-7-7-7-6-6-6-6-7-7-7-7---------|
D|-------------------------------------------------------------------------|
A|-------------------------------------------------------------------------|
E|-------------------------------------------------------------------------|

   A                        C                  D
e|-------------------------------------------------------------------------|
B|-------------------------------------------------------------------------|
G|-9--7--6--7--9--7--9--11--11-12--11--12--14--15--14--15--17--------------|
D|-------------------------------------------------------------------------|
A|-------------------------------------------------------------------------|
E|-------------------------------------------------------------------------|

   E
e|-19p15p12-20p15p12-19p15p12-20p15p12-19p15p12-20p15p12-19p15p12-20p15p12-|
B|-------------------------------------------------------------------------|
G|-------------------------------------------------------------------------|
D|-------------------------------------------------------------------------|
A|-------------------------------------------------------------------------|
E|-------------------------------------------------------------------------|

   G
e|-19p15p12-20p15p12-19p15p12-20p15p12-19p15p12-20p15p12-19p15p12-20p15p12-|
B|-------------------------------------------------------------------------|
G|-------------------------------------------------------------------------|
D|-------------------------------------------------------------------------|
A|-------------------------------------------------------------------------|
E|-------------------------------------------------------------------------|

   A
e|-19p15p12-20p15p12-19p15p12-20p15p12-19p15p12-20p15p12-19p15p12-20p15p12-|
B|-------------------------------------------------------------------------|
G|-------------------------------------------------------------------------|
D|-------------------------------------------------------------------------|
A|-------------------------------------------------------------------------|
E|-------------------------------------------------------------------------|

   C                     D
e|-19b-19-17h19p17---------------------------------------------------------|
B|-----------------19-17-19-17---------------------------------------------|
G|-----------------------------19-17-19-17---------------------------------|
D|-----------------------------------------19-17-14~~~~--------------------|
A|-------------------------------------------------------------------------|
E|-------------------------------------------------------------------------|



[Verse 2]
   E                         G
e|------------------------------------------------------------------------------|
B|------------------------------------------------------------------------------|
G|---------------------------12-------------------------------------------------|
D|-14------------------------14-------------------------------------------------|
A|------------------------------------------------------------------------------|
E|------------------------------------------------------------------------------|

   And now a year's gone by. I saw you just the other night.

   A                                            C          D    
e|------------------------------------------------------------------------------|
B|-10-------------------------------------------12---------14-------------------|
G|-12-------------------------------------------13---------13-------------------|
D|-14---------------------------------------------------------------------------|
A|------------------------------------------------------------------------------|
E|------------------------------------------------------------------------------|

   Hold your hand and walk you down the street. Our hearts thumping to the beat.

   E                                  G
e|------------------------------------------------------------------------------|
B|------------------------------------------------------------------------------|
G|------------------------------------------------------------------------------|
D|-2----------------------------------5-----------------------------------------|
A|-2----------------------------------5-----------------------------------------|
E|-0----------------------------------3-----------------------------------------|

   A new day, a brand new beginning.  Never stopping, never ever ending.

   A                                      C               D               C
e|----------------------------------------8---------------10--------------------|
B|------------------------------------------------------------------------------|
G|----------------------------------------5---------------7---------------5-----|
D|-7----------------------------------------------------------------------5-----|
A|-7----------------------------------------------------------------------3-----|
E|-5----------------------------------------------------------------------------|

   Close your eyes, and hoping I'll stay. In the end will love remain the same...



[Pre-chorus 2]
(C)          D           G                    B            C             D
(Same) as it was before? I'll pick you up and walk you through the door. Now I'm singing...



[Chorus 2]
C                         G
So long - baby, I'm gone. I'll write you one last song.
A                              C    D
When I wake will you be here tomorrow?
C                         G
So long - baby, I'm gone. I'll write you one last song.
A                              C    D
When I wake will you be here tomorrow?



[Outro]
   E                               G
e|-------------------------------------------------------------------------|
B|-------------------------------------------------------------------------|
G|-9-9-9-9-7-7-7-7-6-6-6-6-7-7-7-7-9-9-9-9-7-7-7-7-6-6-6-6-7-7-7-7---------|
D|-------------------------------------------------------------------------|
A|-------------------------------------------------------------------------|
E|-------------------------------------------------------------------------|

   A                               C               D                 E
e|-------------------------------------------------------------------------|
B|-------------------------------------------------------------------------|
G|-9--7--9--11--12--11--12--14--14-14--12--11--12--11--12--11--9--7--9~~~--|
D|-------------------------------------------------------------------------|
A|-------------------------------------------------------------------------|
E|-------------------------------------------------------------------------|
Suggest correction
Give kudos to tab author, rate the tab!
1 2 3 4 5
comments
print report bad tab
guest
You may want to rate the tab now too:
select rating
Wanna post a correction for this tab? Suggest correction