Oops, an error
Loading. Please wait.

Savage Animal tab

13 views 1 this week
no commentswrite comment
1 2 3 4 5
3 more votes to show rating
add to favorites
×
Save as Personal and add changes to this tab that will be seen only by you. Learn more ›
×
You can save this tab as Personal to edit and correct it or add notes. All changes will be seen only by you. Learn more »
launch autoscroll
font size
0
reset
how to read this tab
guitar tuner
edit
Autoscroll
slow
fast
+/-
esc
set tempo
stop
About this tab version
As the author of this song, I know it to be correct. Was this info helpful? Yes No
SAVAGE ANIMAL
From the 2006 release "You're Not Gonna Want To Hear This"

[Intro]
 G                                               E
e|------------------------------------------------------------------------------------|
B|------------------------------------------------------------------------------------|
G|-11s12-12-12-12-12-12-12-11s12-12-12-12-12-12-12-16-16-16-16-16-16-16-16-17--16--14-|
D|------------------------------------------------------------------------------------|
A|-9-s10-10-10-10-10-10-10-9-s10-10-10-10-10-10-10-14-14-14-14-14-14-14-14-15--14--12-|
E|------------------------------------------------------------------------------------|

 G                                               E
e|------------------------------------------------------------------------------------|
B|------------------------------------------------------------------------------------|
G|-11s12-12-12-12-12-12-12-11s12-12-12-12-12-12-12-16-16-16-16-16-16-16-16-17--16--14-|
D|------------------------------------------------------------------------------------|
A|-9-s10-10-10-10-10-10-10-9-s10-10-10-10-10-10-10-14-14-14-14-14-14-14-14-15--14--12-|
E|------------------------------------------------------------------------------------|

 C                                D
e|------------------------------------------------------------------------------------|
B|------------------------------------------------------------------------------------|
G|-17-17-17-17-17-17-17-17--19--17--19-19-19-19-19-19-19-19--21--19-------------------|
D|------------------------------------------------------------------------------------|
A|-15-15-15-15-15-15-15-15--17--15--17-17-17-17-17-17-17-17--19--17-------------------|
E|------------------------------------------------------------------------------------|

 G                             G  F# E
e|------------------------------------------------------------------------------------|
B|------------------------------------------------------------------------------------|
G|-11s12-12-12-12-12-12-12-12----12-11-9\---------------------------------------------|
D|------------------------------------------------------------------------------------|
A|-9-s10-10-10-10-10-10-10-10----10-9--7\---------------------------------------------|
E|------------------------------------------------------------------------------------|



[Verse 1]
E          C                              G                                 B
I remember growing up watching rock stars throwing up, thinking that that's what I want to be.
E             C                          G                           B
So I got a guitar and taught myself some chords. I soon learned that talent isn't
C                   D              G           F#       E
everything - hardly anything. So I picked up a beer and learned about the
  C                           D
important things. But now I'm questioning everything.
 

 
[Chorus 1]
G                               C                                     G 
What's up with guys who wear mascara and sing those songs that try to scare you?
                 D                  C
What happened to good old-fashioned rock'n'roll?
G                               C                                     G 
So here's to drinks without a chaser. Fuck Red Bull, just give me the Jäger.
                 D                  C
What happened to good old-fashioned rock'n'roll?



[Break]
 G  F# C        D        E        D
e|-------------------------------------------|
B|--------------------------------------5----|
G|-------5--------7--------9------------5----|
D|-5--4--5--------7--------9----------5------|
A|-5--4--3--------5--------7--------7--------|
E|-3--2--------------------------------------|

G    F# C               D
Give me Nikki Sixx, not Dixie Chicks - 
E              D
Nickleback can suck my dick.



[Chorus 2]
G                               C                                     G 
What's up with guys who wear mascara and sing those songs that try to scare you?
                 D                  C
What happened to good old-fashioned rock'n'roll?
G                               C                                     G 
So here's to drinks without a chaser. Fuck Red Bull, just give me the Jäger.
                 D                  C
What happened to good old-fashioned rock'n'roll?
G                     C                                  G 
Pop music, rap, and R&B - You're making all the children pussies.
D          C
Bring back rock'n'roll!
G                               C                                  G 
You'll never see these kinds of bands snort cocaine off a hooker's ass.
D          C
Bring back rock'n'roll!

            
            
Suggest correction
Creating personal tab
Creating personal tab
You can edit any tab online and save it as your Personal.

You can edit, replace or remove any tab part or add personal notes – all changes will be seen only by you.

Personal tabs can be accessed anytime from any device, even offline.
Learn more »
Give kudos to tab author, rate the tab!
1 2 3 4 5
comments
print report bad tab
guest
You may want to rate the tab now too:
select rating
Wanna post a correction for this tab? Suggest correction