Oops, an error
Loading. Please wait.

She Loves Me Cuz I Rock tab

70 views 1 this week
no commentswrite comment
1 2 3 4 5
3 more votes to show rating
add to favorites
×
Save as Personal and add changes to this tab that will be seen only by you. Learn more ›
×
You can save this tab as Personal to edit and correct it or add notes. All changes will be seen only by you. Learn more »
launch autoscroll
font size
0
reset
how to read this tab
guitar tuner
edit
Autoscroll
slow
fast
+/-
esc
set tempo
stop
SHE LOVES ME CUZ I ROCK
From the 2003 release "Wasted Time"

[Intro]

   C#          D#          F#          G#  
e|--------------------------------------------------|
B|--------------------------------------------------|
G|-6-----------8-----------11----------13-----------|
D|--------------------------------------------------|
A|-4-----------6-----------9-----------11-----------|
E|--------------------------------------------------|

   C#          D#          F#          G# 
e|-9-----------11----------14----------16-----------|
B|--------------------------------------------------|
G|-6-----------8-----------11----------13-----------|
D|--------------------------------------------------|
A|--------------------------------------------------|
E|--------------------------------------------------|



[Verse 1]

C#     D#      F#           G#
  What was it about me that you ever saw?
C#    D#         F#                  G#
  I'm not such a catch - why did you like me at all?
C#   D#         F#             G#
  Oh yeah, I forgot - it's cuz I play guitar.



[Music break 1]

   C#          D#          F#          G#  
e|--------------------------------------------------|
B|--------------------------------------------------|
G|-6-----------8-----------11----------13-----------|
D|--------------------------------------------------|
A|-4-----------6-----------9-----------11-----------|
E|--------------------------------------------------|

   C#          D#          F#          G# 
e|-9-----------11----------14----------16-----------|
B|--------------------------------------------------|
G|-6-----------8-----------11----------13-----------|
D|--------------------------------------------------|
A|--------------------------------------------------|
E|--------------------------------------------------|



[Verse 2]

C#    D#       F#       G#
  No, I didn't mind our sweet little fling,
C#            D#         F#                   G#
  Cuz when we broke up I laughed at something you said to me.
C#               D#            F#          G#
  You said, "I'm done with the band guys!"

[Riff over verse]

   C#          D#          F#          G# 
e|-------------------------------------s/11-11-11-9--|
B|---------------------------------------------------|
G|-6--6--6--6--6--6--6--6--6--6--6--6----------------|
D|---------------------------------------------------|
A|---------------------------------------------------|
E|---------------------------------------------------|



[Pre-chorus 1]

            F#          G#     F#                         G#
But now I'm signing autographs - Well whatcha think about that? (woah-oh-oh-oh)

[Riff over pre-chorus]

   F#                      G#             
e|---------------------------------------------------|
B|---------------------------------------------------|
G|-6--6--6--6--6--6--6--6--8--8--8--8--8--10--8--6---|  x 2
D|---------------------------------------------------|
A|---------------------------------------------------|
E|---------------------------------------------------|



[Chorus 1]

C#         A#            F#                 G# 
  She's in love with the band guys, but she won't admit it.
C#               A#     F#            G# 
  She'll give it up to any guy with a little talent.
  C#         A#         F#           G# 
  Some would call her a groupie, but she won't have it - 
F#                           G#
  She says her standards are high.
F#                     G#
  We all know that's a lie.



[Music break 2]

   C#          D#          F#          G#  
e|--------------------------------------------------|
B|--------------------------------------------------|
G|-6-----------8-----------11----------13-----------|
D|--------------------------------------------------|
A|-4-----------6-----------9-----------11-----------|
E|--------------------------------------------------|

   C#          D#          F#          G# 
e|-9-----------11----------14----------16-----------|
B|--------------------------------------------------|
G|-6-----------8-----------11----------13-----------|
D|--------------------------------------------------|
A|--------------------------------------------------|
E|--------------------------------------------------|



[Verse 3]

C#   D#          F#        G#
  So I brought a friend to come see our show, 
C#       D#           F#            G#
  And he noticed that girl standing in the front row.
C#               D#            F#   G#
  He said, "Hey, I think she's hot"

[Riff over verse]

   C#          D#          F#          G# 
e|-------------------------------------s/11-11-11-9--|
B|---------------------------------------------------|
G|-6--6--6--6--6--6--6--6--6--6--6--6----------------|
D|---------------------------------------------------|
A|---------------------------------------------------|
E|---------------------------------------------------|



[Pre-chorus 2]

               F#               G#         F#                     G#
I said, "Here, hold on to these drum sticks, and then you'll have that chick." (woah-oh-oh-oh)

[Riff over pre-chorus]

   F#                      G#             
e|---------------------------------------------------|
B|---------------------------------------------------|
G|-6--6--6--6--6--6--6--6--8--8--8--8--8--10--8--6---|  x 2
D|---------------------------------------------------|
A|---------------------------------------------------|
E|---------------------------------------------------|



[Chorus 2]

C#         A#            F#                 G# 
  She's in love with the band guys, but she won't admit it.
C#               A#     F#            G# 
  She'll give it up to any guy with a little talent.
  C#         A#         F#           G# 
  Some would call her a groupie, but she won't have it - 
F#                           G#
  She says her standards are high.
F#                     G#
  We all know that's a lie.



[Bridge]

   A#                                          F#             
e|-6---6---6---6---6---6---6---6---------------2---2---2---2---2---2---2---2---|
B|-----------------------------------------------------------------------------|
G|---7---7---7---7---7---7---7---7---------------3---3---3---3---3---3---3---3-|
D|-----------------------------------------------------------------------------|
A|-----------------------------------------------------------------------------|
E|-----------------------------------------------------------------------------|

   Short or tall, doesn't matter at all - just get up on that stage.

   A#                                  F#                    G#   F#                       G#   
e|-6---6---6---6---6---6---6---6---------------------------------------------------------------|
B|---------------------------------------------------------------------------------------------|
G|---7---7---7---7---7---7---7---7-------------------------------------------------------------|
D|-------------------------------------4---------------------6----4-------------------------6--|
A|-------------------------------------4---------------------6----4-------------------------6--|
E|-------------------------------------2---------------------4----2-------------------------4--|

Cuz when she sees you rockin' out, you know she wants to get laid. You know she came to get laid.



[Chorus 3]

C#         A#            F#                 G# 
  She's in love with the band guys, but she won't admit it.
C#               A#     F#            G# 
  She'll give it up to any guy with a little talent.
  C#         A#         F#           G# 
  Some would call her a groupie, but she won't have it - 
F#                           G#
  She says her standards are high.
F#                     G#
  We all know that's a lie.



[Outro]

   D#             C             G#                  A# 
e|-11-11-11-11----11-11-11-11---11-11-11-11---------13-13-13-11--|
B|---------------------------------------------------------------|
G|-8--8--8--8-----8--8--8--8----8--8--8--8----------10-10-10-8---|  x 3
D|---------------------------------------------------------------|
A|---------------------------------------------------------------|
E|---------------------------------------------------------------|

         She's in love with the band guys (she's in love with the band guys)

   D#             C             G#                A#   G#  D# 
e|-11-11-11-11----11-11-11-11---11-11-11-11---------------------|
B|--------------------------------------------------------------|
G|-8--8--8--8-----8--8--8--8----8--8--8--8--------15---13--8~~~-|
D|--------------------------------------------------------------|
A|------------------------------------------------13---11--6~~~-|
E|--------------------------------------------------------------|

         She's in love with the band guys, and we love her too.

            
            
Suggest correction
Creating personal tab
Creating personal tab
You can edit any tab online and save it as your Personal.

You can edit, replace or remove any tab part or add personal notes – all changes will be seen only by you.

Personal tabs can be accessed anytime from any device, even offline.
Learn more »
Give kudos to tab author, rate the tab!
1 2 3 4 5
comments
print report bad tab
guest
You may want to rate the tab now too:
select rating
Wanna post a correction for this tab? Suggest correction