Oops, an error
Loading. Please wait.

Sheila tab

228 views 1 this week
no commentswrite comment
1 2 3 4 5
3 more votes to show rating
add to favorites
×
Save as Personal and add changes to this tab that will be seen only by you. Learn more ›
×
You can save this tab as Personal to edit and correct it or add notes. All changes will be seen only by you. Learn more »
launch autoscroll
font size
0
reset
how to read this tab
guitar tuner
edit
Autoscroll
slow
fast
+/-
esc
set tempo
stop
SHEILA
From the 2003 release "Wasted Time"

[Intro]
 B               E        F#
e|---------------------------|
B|---------------------------|
G|-4-------------1-----------|
D|-4-------------2--------4--|
A|-2-------------2--------4--|
E|---------------0--------2--|



[Verse 1]
    B  N.C.                        E  N.C.         F#  N.C.
I remember when I first saw you, I didn't know you saw me too.
    B  N.C.                        E  N.C.       F#  N.C.
I remember when I passed you by, I didn't know I caught your eye.
    B                              E                            F#
I remember when I talked to you, I never knew you thought I was cool.
    B                               E                  F#
I remember when I held your hand, I never wanted it to end.

[Riff over verse]
   B               E       F#
e|-----------------0-0-4-5-5-5-4-0--|
B|-0-0-4-5-5-5-4-0------------------|
G|----------------------------------|
D|----------------------------------|
A|----------------------------------|
E|----------------------------------|



[Chorus 1]
   E               F#               B               G#
e|------------------------------------------------------|
B|------------------------------------------------------|
G|-9--------------------------------4-------------------|
D|-9---------------4----------------4---------------6---|
A|-7---------------4----------------2---------------6---|
E|-----------------2--------------------------------4---|

It would've been so easy to start something up with you

   E               F#               B               G#
e|------------------------------------------------------|
B|------------------------------------------------------|
G|-9--------------------------------4-------------------|
D|-9---------------4----------------4---------------6---|
A|-7---------------4----------------2---------------6---|
E|-----------------2--------------------------------4---|

But I didn't have the guts even though you felt it too.

   E               F#               B
e|-------------------------------------|
B|-------------------------------------|
G|-9--------------------------------4--|
D|-9---------------4----------------4--|
A|-7---------------4----------------2--|
E|-----------------2-------------------|

I guess you'll go down as the one that got away.



[Verse 2]
   B  N.C.                  E  N.C.            F#  N.C.
We went out on the balcony - You were smoking, I was drinking coffee.
    B                                E                        F#
You told me that you had to go - You made me promise that I'd call you.

[Riff over verse]
   B               E       F#
e|-----------------0-0-4-5-5-5-4-0--|
B|-0-0-4-5-5-5-4-0------------------|
G|----------------------------------|
D|----------------------------------|
A|----------------------------------|
E|----------------------------------|



[Chorus 2]
   E               F#               B               G#
e|------------------------------------------------------|
B|------------------------------------------------------|
G|-9--------------------------------4-------------------|
D|-9---------------4----------------4---------------6---|
A|-7---------------4----------------2---------------6---|
E|-----------------2--------------------------------4---|

It would've been so easy to start something up with you

   E               F#               B               G#
e|------------------------------------------------------|
B|------------------------------------------------------|
G|-9--------------------------------4-------------------|
D|-9---------------4----------------4---------------6---|
A|-7---------------4----------------2---------------6---|
E|-----------------2--------------------------------4---|

But I didn't have the guts even though you felt it too.

   E               F#               B
e|-------------------------------------|
B|-------------------------------------|
G|-9--------------------------------4--|
D|-9---------------4----------------4--|
A|-7---------------4----------------2--|
E|-----------------2-------------------|

I guess you'll go down as the one that got away.



[Bridge]
   B               D#               E               F#
e|-----------------------------------------------------------------|
B|-----------------------------------------------------------------|
G|-----------------8----------------9---------------11-------------|  x 2
D|-9---------------8----------------9---------------11-------------|
A|-9---------------6----------------7---------------9--------------|
E|-7---------------------------------------------------------------|

              B          D#            E         F#
(one that got away) From me - I didn't know what I had found.
    B        D#               E        F#
The ball was in my court, but I hit it out of bounds.



[Chorus 3]
   E               F#               B               G#
e|------------------------------------------------------|
B|------------------------------------------------------|
G|-9--------------------------------4-------------------|
D|-9---------------4----------------4---------------6---|
A|-7---------------4----------------2---------------6---|
E|-----------------2--------------------------------4---|

It would've been so easy to start something up with you

   E               F#               B               G#
e|------------------------------------------------------|
B|------------------------------------------------------|
G|-9--------------------------------4-------------------|
D|-9---------------4----------------4---------------6---|
A|-7---------------4----------------2---------------6---|
E|-----------------2--------------------------------4---|

But I didn't have the guts even though you felt it too.

   E               F#               B
e|-------------------------------------|
B|-------------------------------------|
G|-9--------------------------------4--|
D|-9---------------4----------------4--|
A|-7---------------4----------------2--|
E|-----------------2-------------------|

I guess you'll go down as the one that got away.



[Outro]
 B               E       F#        B               E       F#       
e|--------------------------------------------------------------------|
B|--------------------------------------------------------------------|
G|-11--------------13------15--------16--------------13------15-------|
D|--------------------------------------------------------------------| x2
A|-9---------------11------13--------14--------------11------13-------|
E|--------------------------------------------------------------------|

"The one that got away"


            
            
Suggest correction
Creating personal tab
Creating personal tab
You can edit any tab online and save it as your Personal.

You can edit, replace or remove any tab part or add personal notes – all changes will be seen only by you.

Personal tabs can be accessed anytime from any device, even offline.
Learn more »
Give kudos to tab author, rate the tab!
1 2 3 4 5
comments
print report bad tab
guest
You may want to rate the tab now too:
select rating
Wanna post a correction for this tab? Suggest correction