Oops, an error
Loading. Please wait.

Sunday Afternoon tab

25 views 3 this week
no commentswrite comment
1 2 3 4 5
3 more votes to show rating
add to favorites
×
Save as Personal and add changes to this tab that will be seen only by you. Learn more ›
×
You can save this tab as Personal to edit and correct it or add notes. All changes will be seen only by you. Learn more »
launch autoscroll
font size
0
reset
how to read this tab
guitar tuner
edit
Autoscroll
slow
fast
+/-
esc
set tempo
stop
About this tab version
As the author of this song, I know it to be correct. Was this info helpful? Yes No
SUNDAY AFTERNOON
B-side from the 2006 "You're Not Gonna Want To Hear This" recording sessions

[Verse 1]
F#                                          A#
Couch-ridden - nothing's on the television. Hungover from another night of binging.
B                                            C#
So hungry - nothing's in the fridge, and I'm bored.
F#                                           A#
Smoked-out - I shower, and it isn't helping. Nothing left to do but bang my head against the
B                                    C#
wall, and wait around for the day to end. And I say to myself...



[chorus 1]
F#             A#       B             C#
"You're such a fuckup". Everything is a disaster.
F#           A#         B                C#
Watching the clock tick doesn't make the day go faster.
D#                                       C#
Last night's fight has taken its toll on me.
                                          e| ------------------------------------------|
                                          B|-------------------------------------------|
                                          D|-6-6-6-8-8-8-10-10-10-11-11-11-11-11-11-11-|
                                          G|-------------------------------------------|
                                          A|-4-4-4-6-6-6-8--8--8--9--9--9--9--9--9--9--|
                                          E|-------------------------------------------|
                       F#             A#       B             C#
And you look at me and say, "You're a fuckup - Get away from me, you bastard."
F#          A#       B       C#
I bleed bad luck, so I won't ever ask for
D#                                           C#
your company, cuz you might put the blame on me.
                                             e| ------------------------------------------|
                                             B|-------------------------------------------|
                                             D|-6-6-6-8-8-8-10-10-10-11-11-11-11-11-11-11-|
                                             G|-------------------------------------------|
                                             A|-4-4-4-6-6-6-8--8--8--9--9--9--9--9--9--9--|
                                             E|-------------------------------------------|



[Solo]
   F#     A#    B          C#     F#     A#    B          C#
e|--------------------------------------------------------------------|
B|--------------------------------------------------------------------|
G|-6~-----------------------------6~----------------------------------|
D|----8-6-4~-4-/9~-9-9-9-9-8-6-6~----8-6-4~-4-/9~-9-9-9-9-8-6~~-------|
A|--------------------------------------------------------------------|
E|--------------------------------------------------------------------|

  D#                       C#
e|--------------------------------------------------------------------|
B|--------------------------------------------------------------------|
G|-8~-8~-8-8-8-8~-8-8-8-6---6-6-6-8-8-8-10-10-10-11-11-11-11-11-11-11-|
D|------------------------8-------------------------------------------|
A|--------------------------------------------------------------------|
E|--------------------------------------------------------------------|



[verse 2]
F#                                         A#
Head still pounding late into the evening. I order pizza - everything I'm eating
B                                   C#
comes right back up the way it went in.
F#                                           A#
Too tired to sleep, and my ears are ringing. Loud music, screaming, and a lot of drinking.
B                                   C#
Phone off the hook - I wanna stay inside.  And I say to myself...



[chorus 2]
F#             A#       B             C#
"You're such a fuckup". Everything is a disaster.
F#           A#         B                C#
Watching the clock tick doesn't make the day go faster.
D#                                       C#
Last night's fight has taken its toll on me.
                                          e| ------------------------------------------|
                                          B|-------------------------------------------|
                                          D|-6-6-6-8-8-8-10-10-10-11-11-11-11-11-11-11-|
                                          G|-------------------------------------------|
                                          A|-4-4-4-6-6-6-8--8--8--9--9--9--9--9--9--9--|
                                          E|-------------------------------------------|
                       F#             A#       B             C#
And you look at me and say, "You're a fuckup - Get away from me, you bastard."
F#          A#       B       C#
I bleed bad luck, so I won't ever ask for
D#                                           C#
your company, cuz you might put the blame on me.
                                             e| ------------------------------------------|
                                             B|-------------------------------------------|
                                             D|-6-6-6-8-8-8-10-10-10-11-11-11-11-11-11-11-|
                                             G|-------------------------------------------|
                                             A|-4-4-4-6-6-6-8--8--8--9--9--9--9--9--9--9--|
                                             E|-------------------------------------------|



[Break]
 D# D#          C# C#          B B

   F#        F
e|------------------|
B|------------------|
G|------------------|
D|-4-4-4-4-4-3-3-3--|
A|-4-4-4-4-4-3-3-3--|
E|-2-2-2-2-2-1-1-1--|

 D# D#          C# C#          B B

   F#        F
e|------------------|
B|------------------|
G|------------------|
D|-4-4-4-4-4-3-3-3--|
A|-4-4-4-4-4-3-3-3--|
E|-2-2-2-2-2-1-1-1--|

 G#                 (A#) B          C#



[chorus 3]
F# F#                   B             C#
"You're such a fuckup". Everything is a disaster.
F# F#                   B                C#
Watching the clock tick doesn't make the day go faster.
D#                                       C#
Last night's fight has taken its toll on me.
                                          e| ------------------------------------------|
                                          B|-------------------------------------------|
                                          D|-6-6-6-8-8-8-10-10-10-11-11-11-11-11-11-11-|
                                          G|-------------------------------------------|
                                          A|-4-4-4-6-6-6-8--8--8--9--9--9--9--9--9--9--|
                                          E|-------------------------------------------|
                       F#             A#       B             C#
And you look at me and say, "You're a fuckup - Get away from me, you bastard."
F#          A#       B       C#
I bleed bad luck, so I won't ever ask for
D#                                           C#
your company, cuz you might put the blame on me.
                                             e| ------------------------------------------|
                                             B|-------------------------------------------|
                                             D|-6-6-6-8-8-8-10-10-10-11-11-11-11-11-11-11-|
                                             G|-------------------------------------------|
                                             A|-4-4-4-6-6-6-8--8--8--9--9--9--9--9--9--9--|
                                             E|-------------------------------------------|

            
            
Suggest correction
Creating personal tab
Creating personal tab
You can edit any tab online and save it as your Personal.

You can edit, replace or remove any tab part or add personal notes – all changes will be seen only by you.

Personal tabs can be accessed anytime from any device, even offline.
Learn more »
Give kudos to tab author, rate the tab!
1 2 3 4 5
comments
print report bad tab
guest
You may want to rate the tab now too:
select rating
Wanna post a correction for this tab? Suggest correction