Oops, an error
Loading. Please wait.

Swallowed My Pride With Cyanide tab

10 views 1 this week
no commentswrite comment
1 2 3 4 5
3 more votes to show rating
add to favorites
×
Save as Personal and add changes to this tab that will be seen only by you. Learn more ›
×
You can save this tab as Personal to edit and correct it or add notes. All changes will be seen only by you. Learn more »
launch autoscroll
font size
0
reset
how to read this tab
guitar tuner
edit
Autoscroll
slow
fast
+/-
esc
set tempo
stop
About this tab version
As the author of this song, I know it to be correct. Was this info helpful? Yes No
SWALLOWED MY PRIDE WITH CYANIDE
From the 2006 release "You're Not Gonna Want To Hear This"

[Intro]
   E             C#             A             B
e|------------------------------------------------|
B|------------------------------------------------|
G|-9-------11-9--6---------8-6--------------------|  x 2
D|-9-------9--9--6---------8-6--7-------------9---|
A|-7-------9--7--4---------6-4--7-------------9---|
E|------------------------------5-------------7---|



[Verse 1]
E                                       C#
Go ahead and take what's left of me. My heart's been sold, but it still beats
A                               B
in the case on your display for everyone to see.
E                          C#
Go ahead and take my lungs. I never smoked so I won't
A                              B
choke on all the shit you spit back in my face.



[Pre-chorus 1]
G#                            A                              B
I hate the way you always say each and every single day, you feel so anxious now.
   G#                                A                                     B
It makes me sick to think I'd stick around for all your fucking shit. I've gotta get away somehow.



[Chorus 1]
E      G#                 C#             B
So goodbye for good. This time I've had enough.
     E                                G#
I've taken all that I can take - your fucking lies and bellyaches.
   C#                        B
My sympathy has simply gone away. Goodbye for good.



[Verse 2]
E                               C#
Go ahead and take my eyes. I've got no more use for my sight.
     A                        B
I've seen all I need to see - images burned in memories.
E                          C#
Go ahead and take my pride. I swallowed it with cyanide.
  A                                 B
I hope it burns us inside out - I'm happy lonely now.



[Pre-chorus 2]
G#                            A                              B
I hate the way you always say each and every single day, you feel so anxious now.
   G#                                A                                     B
It makes me sick to think I'd stick around for all your fucking shit. I've gotta get away somehow.



[Chorus 2]
E      G#                 C#             B
So goodbye for good. This time I've had enough.
     E                                G#
I've taken all that I can take - your fucking lies and bellyaches.
   C#                        B
My sympathy has simply gone away. Goodbye for good.



[Break riff]
e|-------------------------------------------------|
B|-------------------------------------------------|
G|-------13----------13----------13----16-14-13----|
D|-14-14----14-14-14----14-14-14----14----------14-|
A|-------------------------------------------------|
E|-------------------------------------------------|

e|-------------------------------------------------|
B|-------------------------------------------------|
G|-------13----------13----------13----16-14-13----|
D|-14-14----14-14-14----14-14-14----14----------14-|
A|-------------------------------------------------|
E|-------------------------------------------------|

e|-------------------------------------------------|
B|-------------------------------------------------|
G|-------13----------13----------13----16-14-13----|
D|-14-14----14-14-14----14-14-14----14----------14-|
A|-------------------------------------------------|
E|-------------------------------------------------|

e|-------------------------------------------------|
B|-------------------------------------------------|
G|-16-14-13-16-14-13-16-14-13-16-14-13-16-14-13----|
D|----------------------------------------------14-|
A|-------------------------------------------------|
E|-------------------------------------------------|



[Pre-chorus 3]
G#                            A                              B
I hate the way you always say each and every single day, you feel so anxious now.
   G#                                A                                     B
It makes me sick to think I'd stick around for all your fucking shit. I've gotta get away somehow.



[Chorus 3]
E      G#                 C#             B
So goodbye for good. This time I've had enough.
     E                                G#
I've taken all that I can take - your fucking lies and bellyaches.
   C#                        B
My sympathy has simply gone away. Goodbye for good.
Suggest correction
Creating personal tab
Creating personal tab
You can edit any tab online and save it as your Personal.

You can edit, replace or remove any tab part or add personal notes – all changes will be seen only by you.

Personal tabs can be accessed anytime from any device, even offline.
Learn more »
Give kudos to tab author, rate the tab!
1 2 3 4 5
comments
print report bad tab
guest
You may want to rate the tab now too:
select rating
Wanna post a correction for this tab? Suggest correction