Oops, an error
Loading. Please wait.

The Lost Skeleton tab

22 views 1 this week
no commentswrite comment
1 2 3 4 5
3 more votes to show rating
add to favorites
×
Save as Personal and add changes to this tab that will be seen only by you. Learn more ›
×
You can save this tab as Personal to edit and correct it or add notes. All changes will be seen only by you. Learn more »
launch autoscroll
font size
0
reset
how to read this tab
guitar tuner
edit
Autoscroll
slow
fast
+/-
esc
set tempo
stop
About this tab version
As the author of this song, I know it to be correct. Was this info helpful? Yes No
THE LOST SKELETON
From the 2006 release "You're Not Gonna Want To Hear This"

[Intro]

   E                                  C#              A
e|-----------------------------------------------------------------------------|
B|-----------------------------------------------------------------------------|
G|-9-9-9-9-9-9-9-9-9-9-9-9-9-11-11-11-9-9-9-9-9-9-9-9-14-14-14-14-14-13-13-11--| x2
D|-----------------------------------------------------------------------------|
A|-7-7-7-7-7-7-7-7-7-7-7-7-7-9--9--9--7-7-7-7-7-7-7-7-12-12-12-12-12-11-11-9---|
E|-----------------------------------------------------------------------------|



[Verse 1]

E
Come on in, sit on down, have a cup of coffee.
                                       C#                                          A
No thanks - a scotch on the rocks will make me appear that I'm actually here for a reason - A reason other
than this.
E                                                              C#
Meanwhile, the skeleton has awoken. And under his breath he is choking on air, but the reason is clear.
       A
In the blink of an eye, everyone is in fear.



[Chorus 1]

         E                                  A                       B
e|--------------------------------------------------------------------------------------------------|
B|--------------------------------------------------------------------------------------------------|
G|-------9-9-9-9-9-9-9-9-9-9-9-9-9-11-11-11-14-14-14-14-14-14-14-14-16-16-16-16-16-16-16-16---------|
D|--------------------------------------------------------------------------------------------------|
A|-------7-7-7-7-7-7-7-7-7-7-7-7-7-9--9--9--12-12-12-12-12-12-12-12-14-14-14-14-14-14-14-14---------|
E|--------------------------------------------------------------------------------------------------|

  All we want                                                    is atmosphereum.

   E                                  A                       B
e|--------------------------------------------------------------------------------------------------|
B|--------------------------------------------------------------------------------------------------|
G|-9-9-9-9-9-9-9-9-9-9-9-9-9-11-11-11-14-14-14-14-14-14-14-14-16-16-16-16-16-16-16-16---------------|
D|--------------------------------------------------------------------------------------------------|
A|-7-7-7-7-7-7-7-7-7-7-7-7-7-9--9--9--12-12-12-12-12-12-12-12-14-14-14-14-14-14-14-14---------------|
E|--------------------------------------------------------------------------------------------------|

         E                                  A                       B
e|--------------------------------------------------------------------------------------------------|
B|--------------------------------------------------------------------------------------------------|
G|-------9-9-9-9-9-9-9-9-9-9-9-9-9-11-11-11-14-14-14-14-14-14-14-14-16-16-16-16-16-16-16-16---------|
D|--------------------------------------------------------------------------------------------------|
A|-------7-7-7-7-7-7-7-7-7-7-7-7-7-9--9--9--12-12-12-12-12-12-12-12-14-14-14-14-14-14-14-14---------|
E|--------------------------------------------------------------------------------------------------|

  All we want                                                    is atmosphereum.

   E                                  A                       B
e|--------------------------------------------------------------------------------------------------|
B|--------------------------------------------------------------------------------------------------|
G|-9-9-9-9-9-9-9-9-9-9-9-9-9-11-11-11-14-14-14-14-14-14-14-14-16-16-14-14-13-13-11-11---------------|
D|--------------------------------------------------------------------------------------------------|
A|-7-7-7-7-7-7-7-7-7-7-7-7-7-9--9--9--12-12-12-12-12-12-12-12-14-14-12-12-11-11-9--9----------------|
E|--------------------------------------------------------------------------------------------------|

         E                                                 A                        B
e|--------------------------------------------------------------------------------------------------|
B|--------------------------------------------------------------------------------------------------|
G|-------1------------------------------------------------------------------------------------------|
D|-------2-------------------------------------------------7------------------------9---------------|
A|-------2-------------------------------------------------7------------------------9---------------|
E|-------0-------------------------------------------------5------------------------7---------------|

But it's so hard to get, and it's making me sick, and I've spent my whole life just searching for it. 

         E                                  A                       B
e|--------------------------------------------------------------------------------------------------|
B|--------------------------------------------------------------------------------------------------|
G|-------9-9-9-9-9-9-9-9-9-9-9-9-9-11-11-11-14-14-14-14-14-14-14-14-16-16-16-16-16-16-16-16---------|
D|--------------------------------------------------------------------------------------------------|
A|-------7-7-7-7-7-7-7-7-7-7-7-7-7-9--9--9--12-12-12-12-12-12-12-12-14-14-14-14-14-14-14-14---------|
E|--------------------------------------------------------------------------------------------------|

  All we want                                                    is atmosphereum.

   E                                  A                       B
e|--------------------------------------------------------------------------------------------------|
B|--------------------------------------------------------------------------------------------------|
G|-9-9-9-9-9-9-9-9-9-9-9-9-9-11-11-11-14-14-14-14-14-14-14-14-16-16-14-14-13-13-11-11---------------|
D|--------------------------------------------------------------------------------------------------|
A|-7-7-7-7-7-7-7-7-7-7-7-7-7-9--9--9--12-12-12-12-12-12-12-12-14-14-12-12-11-11-9--9----------------|
E|--------------------------------------------------------------------------------------------------|



[Break]
   E                                  C#              A
e|-----------------------------------------------------------------------------|
B|-----------------------------------------------------------------------------|
G|-9-9-9-9-9-9-9-9-9-9-9-9-9-11-11-11-9-9-9-9-9-9-9-9-14-14-14-14-14-13-13-11--|
D|-----------------------------------------------------------------------------|
A|-7-7-7-7-7-7-7-7-7-7-7-7-7-9--9--9--7-7-7-7-7-7-7-7-12-12-12-12-12-11-11-9---|
E|-----------------------------------------------------------------------------|



[Verse 2]

E
All color is gone - ignore the confusion. It's beautiful.
          C#                                              A
This disillusion is perfect. And it will be worth it - if we stick together, I'm not gonna hurt you.
F#          D           E
I sleep now. I sleep now.
F#          A           B
I sleep now. I sleep now.



[Chorus 2]

         E                                  A                       B
e|--------------------------------------------------------------------------------------------------|
B|--------------------------------------------------------------------------------------------------|
G|-------9-9-9-9-9-9-9-9-9-9-9-9-9-11-11-11-14-14-14-14-14-14-14-14-16-16-16-16-16-16-16-16---------|
D|--------------------------------------------------------------------------------------------------|
A|-------7-7-7-7-7-7-7-7-7-7-7-7-7-9--9--9--12-12-12-12-12-12-12-12-14-14-14-14-14-14-14-14---------|
E|--------------------------------------------------------------------------------------------------|

  All we want                                                    is atmosphereum.

   E                                  A                       B
e|--------------------------------------------------------------------------------------------------|
B|--------------------------------------------------------------------------------------------------|
G|-9-9-9-9-9-9-9-9-9-9-9-9-9-11-11-11-14-14-14-14-14-14-14-14-16-16-16-16-16-16-16-16---------------|
D|--------------------------------------------------------------------------------------------------|
A|-7-7-7-7-7-7-7-7-7-7-7-7-7-9--9--9--12-12-12-12-12-12-12-12-14-14-14-14-14-14-14-14---------------|
E|--------------------------------------------------------------------------------------------------|

         E                                  A                       B
e|--------------------------------------------------------------------------------------------------|
B|--------------------------------------------------------------------------------------------------|
G|-------9-9-9-9-9-9-9-9-9-9-9-9-9-11-11-11-14-14-14-14-14-14-14-14-16-16-16-16-16-16-16-16---------|
D|--------------------------------------------------------------------------------------------------|
A|-------7-7-7-7-7-7-7-7-7-7-7-7-7-9--9--9--12-12-12-12-12-12-12-12-14-14-14-14-14-14-14-14---------|
E|--------------------------------------------------------------------------------------------------|

  All we want                                                    is atmosphereum.

   E                                  A                       B
e|--------------------------------------------------------------------------------------------------|
B|--------------------------------------------------------------------------------------------------|
G|-9-9-9-9-9-9-9-9-9-9-9-9-9-11-11-11-14-14-14-14-14-14-14-14-16-16-14-14-13-13-11-11---------------|
D|--------------------------------------------------------------------------------------------------|
A|-7-7-7-7-7-7-7-7-7-7-7-7-7-9--9--9--12-12-12-12-12-12-12-12-14-14-12-12-11-11-9--9----------------|
E|--------------------------------------------------------------------------------------------------|

         E                                                 A                        B
e|--------------------------------------------------------------------------------------------------|
B|--------------------------------------------------------------------------------------------------|
G|-------1------------------------------------------------------------------------------------------|
D|-------2-------------------------------------------------7------------------------9---------------|
A|-------2-------------------------------------------------7------------------------9---------------|
E|-------0-------------------------------------------------5------------------------7---------------|

But it's so hard to get, and it's making me sick, and I've spent my whole life just searching for it. 

         E                                  A                       B
e|--------------------------------------------------------------------------------------------------|
B|--------------------------------------------------------------------------------------------------|
G|-------9-9-9-9-9-9-9-9-9-9-9-9-9-11-11-11-14-14-14-14-14-14-14-14-16-16-16-16-16-16-16-16---------|
D|--------------------------------------------------------------------------------------------------|
A|-------7-7-7-7-7-7-7-7-7-7-7-7-7-9--9--9--12-12-12-12-12-12-12-12-14-14-14-14-14-14-14-14---------|
E|--------------------------------------------------------------------------------------------------|

  All we want                                                    is atmosphereum.

   E                                  A                       B
e|--------------------------------------------------------------------------------------------------|
B|--------------------------------------------------------------------------------------------------|
G|-9-9-9-9-9-9-9-9-9-9-9-9-9-11-11-11-14-14-14-14-14-14-14-14-16-16-14-14-13-13-11-11---------------|
D|--------------------------------------------------------------------------------------------------|
A|-7-7-7-7-7-7-7-7-7-7-7-7-7-9--9--9--12-12-12-12-12-12-12-12-14-14-12-12-11-11-9--9----------------|
E|--------------------------------------------------------------------------------------------------|



[Solo]

   E                                       C#              A
e|--------------------------------------------------------------------------------------------------|
B|--------------------------------------------------------------------------------------------------|
G|-13-13-13-13-11-11-11-11-9-9-9-9-8-8-8-8-9-9-9-9-8-8-8-8-9-9-9-9-8-8-8-8--------------------------|
D|--------------------------------------------------------------------------------------------------|
A|-11-11-11-11-9--9--9--9--7-7-7-7-6-6-6-6-7-7-7-7-6-6-6-6-7-7-7-7-6-6-6-6--------------------------|
E|--------------------------------------------------------------------------------------------------|

   E                                       C#                      A
e|--------------------------------------------------------------------------------------------------|
B|--------------------------------------------------------------------------------------------------|
G|-13-13-13-13-11-11-11-11-9-9-9-9-8-8-8-8-13-13-13-13-11-11-11-11-14-14-14-14-13-13-13-13----------|
D|--------------------------------------------------------------------------------------------------|
A|-11-11-11-11-9--9--9--9--7-7-7-7-6-6-6-6-11-11-11-11-9--9--9--9--12-12-12-12-11-11-11-11----------|
E|--------------------------------------------------------------------------------------------------|

   E                                               C#                      A
e|-------------------------------------------------------------------------------------------------|
B|-------------------------------------------------------------------------------------------------|
G|-16-16-16-16-14-14-14-14-13-13-13-13-11-11-11-11-16-16-16-16-14-14-14-14-18-18-18-18-16-16-16-16-|
D|-------------------------------------------------------------------------------------------------|
A|-14-14-14-14-12-12-12-12-11-11-11-11-9--9--9--9--14-14-14-14-12-12-12-12-16-16-16-16-14-14-14-14-|
E|-------------------------------------------------------------------------------------------------|

   E                                               C#                      A
e|-------------------------------------------------------------------------------------------------|
B|-------------------------------------------------------------------------------------------------|
G|-16-16-16-16-14-14-14-14-13-13-13-13-11-11-11-11-16-16-18-18-20-20-21-21-21--21--21--21--21--21--|
D|-------------------------------------------------------------------------------------------------|
A|-14-14-14-14-12-12-12-12-11-11-11-11-9--9--9--9--14-14-16-16-18-18-19-19-19--19--19--19--19--19--|
E|-------------------------------------------------------------------------------------------------|



[Chorus 3]

         E                                  A                       B
e|--------------------------------------------------------------------------------------------------|
B|--------------------------------------------------------------------------------------------------|
G|-------9-9-9-9-9-9-9-9-9-9-9-9-9-11-11-11-14-14-14-14-14-14-14-14-16-16-16-16-16-16-16-16---------|
D|--------------------------------------------------------------------------------------------------|
A|-------7-7-7-7-7-7-7-7-7-7-7-7-7-9--9--9--12-12-12-12-12-12-12-12-14-14-14-14-14-14-14-14---------|
E|--------------------------------------------------------------------------------------------------|

  All we want                                                    is atmosphereum.
           (I sleep now!    I sleep now!    I sleep now!            I sleep now!)

   E                                  A                       B
e|--------------------------------------------------------------------------------------------------|
B|--------------------------------------------------------------------------------------------------|
G|-9-9-9-9-9-9-9-9-9-9-9-9-9-11-11-11-14-14-14-14-14-14-14-14-16-16-16-16-16-16-16-16---------------|
D|--------------------------------------------------------------------------------------------------|
A|-7-7-7-7-7-7-7-7-7-7-7-7-7-9--9--9--12-12-12-12-12-12-12-12-14-14-14-14-14-14-14-14---------------|
E|--------------------------------------------------------------------------------------------------|

           (I sleep now!    I sleep now!    I sleep now!            I sleep now!)

         E                                  A                       B
e|--------------------------------------------------------------------------------------------------|
B|--------------------------------------------------------------------------------------------------|
G|-------9-9-9-9-9-9-9-9-9-9-9-9-9-11-11-11-14-14-14-14-14-14-14-14-16-16-16-16-16-16-16-16---------|
D|--------------------------------------------------------------------------------------------------|
A|-------7-7-7-7-7-7-7-7-7-7-7-7-7-9--9--9--12-12-12-12-12-12-12-12-14-14-14-14-14-14-14-14---------|
E|--------------------------------------------------------------------------------------------------|

  All we want                                                    is atmosphereum.
           (I sleep now!    I sleep now!    I sleep now!            I sleep now!)

   E                                  A                       B
e|--------------------------------------------------------------------------------------------------|
B|--------------------------------------------------------------------------------------------------|
G|-9-9-9-9-9-9-9-9-9-9-9-9-9-11-11-11-14-14-14-14-14-14-14-14-16-16-14-14-13-13-11-11---------------|
D|--------------------------------------------------------------------------------------------------|
A|-7-7-7-7-7-7-7-7-7-7-7-7-7-9--9--9--12-12-12-12-12-12-12-12-14-14-12-12-11-11-9--9----------------|
E|--------------------------------------------------------------------------------------------------|

           (I sleep now!    I sleep now!    I sleep now!            I sleep now!)

         E                                                 A                        B
e|--------------------------------------------------------------------------------------------------|
B|--------------------------------------------------------------------------------------------------|
G|-------1------------------------------------------------------------------------------------------|
D|-------2-------------------------------------------------7------------------------9---------------|
A|-------2-------------------------------------------------7------------------------9---------------|
E|-------0-------------------------------------------------5------------------------7---------------|

But it's so hard to get, and it's making me sick, and I've spent my whole life just searching for it. 

         E                                  A                       B
e|--------------------------------------------------------------------------------------------------|
B|--------------------------------------------------------------------------------------------------|
G|-------9-9-9-9-9-9-9-9-9-9-9-9-9-11-11-11-14-14-14-14-14-14-14-14-16-16-16-16-16-16-16-16---------|
D|--------------------------------------------------------------------------------------------------|
A|-------7-7-7-7-7-7-7-7-7-7-7-7-7-9--9--9--12-12-12-12-12-12-12-12-14-14-14-14-14-14-14-14---------|
E|--------------------------------------------------------------------------------------------------|

  All we want                                                    is atmosphereum.
           (I sleep now!    I sleep now!    I sleep now!            I sleep now!)

   E                                  A                       B
e|--------------------------------------------------------------------------------------------------|
B|--------------------------------------------------------------------------------------------------|
G|-9-9-9-9-9-9-9-9-9-9-9-9-9-11-11-11-14-14-14-14-14-14-14-14-16-16-14-14-13-13-11-11---------------|
D|--------------------------------------------------------------------------------------------------|
A|-7-7-7-7-7-7-7-7-7-7-7-7-7-9--9--9--12-12-12-12-12-12-12-12-14-14-12-12-11-11-9--9----------------|
E|--------------------------------------------------------------------------------------------------|

            
            
Suggest correction
Creating personal tab
Creating personal tab
You can edit any tab online and save it as your Personal.

You can edit, replace or remove any tab part or add personal notes – all changes will be seen only by you.

Personal tabs can be accessed anytime from any device, even offline.
Learn more »
Give kudos to tab author, rate the tab!
1 2 3 4 5
comments
print report bad tab
guest
You may want to rate the tab now too:
select rating
Wanna post a correction for this tab? Suggest correction